  0
SECTION
  2
HEADER
  9
$ACADVER
  1
AC1014
  9
$ACADMAINTVER
 70
     9
  9
$DWGCODEPAGE
  3
ANSI_1252
  9
$INSBASE
 10
125.8436152978814
 20
-58.44655489603085
 30
0.0
  9
$EXTMIN
 10
116.8905748221481
 20
-61.75659472730544
 30
0.0
  9
$EXTMAX
 10
177.8825151214487
 20
-38.07311939096418
 30
0.0
  9
$LIMMIN
 10
0.0
 20
0.0
  9
$LIMMAX
 10
17.0
 20
11.0
  9
$ORTHOMODE
 70
     1
  9
$REGENMODE
 70
     1
  9
$FILLMODE
 70
     1
  9
$QTEXTMODE
 70
     0
  9
$MIRRTEXT
 70
     1
  9
$DRAGMODE
 70
     2
  9
$LTSCALE
 40
12.0
  9
$OSMODE
 70
    55
  9
$ATTMODE
 70
     1
  9
$TEXTSIZE
 40
1.0
  9
$TRACEWID
 40
0.05
  9
$TEXTSTYLE
  7
STANDARD
  9
$CLAYER
  8
0
  9
$CELTYPE
  6
BYLAYER
  9
$CECOLOR
 62
   256
  9
$CELTSCALE
 40
1.0
  9
$DELOBJ
 70
     1
  9
$DISPSILH
 70
     0
  9
$DIMSCALE
 40
16.0
  9
$DIMASZ
 40
0.1
  9
$DIMEXO
 40
0.0625
  9
$DIMDLI
 40
0.25
  9
$DIMRND
 40
0.0
  9
$DIMDLE
 40
0.0
  9
$DIMEXE
 40
0.1
  9
$DIMTP
 40
0.0
  9
$DIMTM
 40
0.0
  9
$DIMTXT
 40
0.1
  9
$DIMCEN
 40
0.09
  9
$DIMTSZ
 40
0.0
  9
$DIMTOL
 70
     0
  9
$DIMLIM
 70
     0
  9
$DIMTIH
 70
     1
  9
$DIMTOH
 70
     1
  9
$DIMSE1
 70
     0
  9
$DIMSE2
 70
     0
  9
$DIMTAD
 70
     0
  9
$DIMZIN
 70
     4
  9
$DIMBLK
  1

  9
$DIMASO
 70
     1
  9
$DIMSHO
 70
     1
  9
$DIMPOST
  1
\X
  9
$DIMAPOST
  1
cm
  9
$DIMALT
 70
     1
  9
$DIMALTD
 70
     1
  9
$DIMALTF
 40
2.54
  9
$DIMLFAC
 40
1.0
  9
$DIMTOFL
 70
     0
  9
$DIMTVP
 40
0.0
  9
$DIMTIX
 70
     0
  9
$DIMSOXD
 70
     0
  9
$DIMSAH
 70
     0
  9
$DIMBLK1
  1

  9
$DIMBLK2
  1

  9
$DIMSTYLE
  2
STANDARD
  9
$DIMCLRD
 70
     0
  9
$DIMCLRE
 70
     0
  9
$DIMCLRT
 70
     0
  9
$DIMTFAC
 40
1.0
  9
$DIMGAP
 40
0.08
  9
$DIMJUST
 70
     0
  9
$DIMSD1
 70
     0
  9
$DIMSD2
 70
     0
  9
$DIMTOLJ
 70
     1
  9
$DIMTZIN
 70
     4
  9
$DIMALTZ
 70
     4
  9
$DIMALTTZ
 70
     4
  9
$DIMFIT
 70
     1
  9
$DIMUPT
 70
     0
  9
$DIMUNIT
 70
     5
  9
$DIMDEC
 70
     3
  9
$DIMTDEC
 70
     3
  9
$DIMALTU
 70
     2
  9
$DIMALTTD
 70
     1
  9
$DIMTXSTY
  7
ROMANS
  9
$DIMAUNIT
 70
     0
  9
$LUNITS
 70
     2
  9
$LUPREC
 70
     4
  9
$SKETCHINC
 40
0.1
  9
$FILLETRAD
 40
0.0
  9
$AUNITS
 70
     0
  9
$AUPREC
 70
     0
  9
$MENU
  1
acad
  9
$ELEVATION
 40
0.0
  9
$PELEVATION
 40
0.0
  9
$THICKNESS
 40
0.0
  9
$LIMCHECK
 70
     0
  9
$BLIPMODE
 70
     0
  9
$CHAMFERA
 40
0.0
  9
$CHAMFERB
 40
0.0
  9
$CHAMFERC
 40
0.0
  9
$CHAMFERD
 40
0.0
  9
$SKPOLY
 70
     0
  9
$TDCREATE
 40
2444971.791666666
  9
$TDUPDATE
 40
2453698.574257083
  9
$TDINDWG
 40
0.4066783681
  9
$TDUSRTIMER
 40
0.4066783681
  9
$USRTIMER
 70
     1
  9
$ANGBASE
 50
0.0
  9
$ANGDIR
 70
     0
  9
$PDMODE
 70
     0
  9
$PDSIZE
 40
0.0
  9
$PLINEWID
 40
0.0
  9
$COORDS
 70
     1
  9
$SPLFRAME
 70
     0
  9
$SPLINETYPE
 70
     6
  9
$SPLINESEGS
 70
     8
  9
$ATTDIA
 70
     0
  9
$ATTREQ
 70
     1
  9
$HANDLING
 70
 22529
  9
$HANDSEED
  5
16F
  9
$SURFTAB1
 70
     6
  9
$SURFTAB2
 70
     6
  9
$SURFTYPE
 70
     6
  9
$SURFU
 70
     6
  9
$SURFV
 70
     6
  9
$UCSNAME
  2

  9
$UCSORG
 10
0.0
 20
0.0
 30
0.0
  9
$UCSXDIR
 10
1.0
 20
0.0
 30
0.0
  9
$UCSYDIR
 10
0.0
 20
1.0
 30
0.0
  9
$PUCSNAME
  2

  9
$PUCSORG
 10
0.0
 20
0.0
 30
0.0
  9
$PUCSXDIR
 10
1.0
 20
0.0
 30
0.0
  9
$PUCSYDIR
 10
0.0
 20
1.0
 30
0.0
  9
$USERI1
 70
     0
  9
$USERI2
 70
     0
  9
$USERI3
 70
     0
  9
$USERI4
 70
     0
  9
$USERI5
 70
     0
  9
$USERR1
 40
0.0
  9
$USERR2
 40
0.0
  9
$USERR3
 40
0.0
  9
$USERR4
 40
0.0
  9
$USERR5
 40
0.0
  9
$WORLDVIEW
 70
     1
  9
$SHADEDGE
 70
     3
  9
$SHADEDIF
 70
    70
  9
$TILEMODE
 70
     1
  9
$MAXACTVP
 70
    16
  9
$PINSBASE
 10
0.0
 20
0.0
 30
0.0
  9
$PLIMCHECK
 70
     0
  9
$PEXTMIN
 10
-0.0881214785261762
 20
-0.1507325589963031
 30
-0.0015258207003583
  9
$PEXTMAX
 10
21.92647340578088
 20
11.62187500101504
 30
0.0000000349246037
  9
$PLIMMIN
 10
-0.1666668268639272
 20
-0.2499999962453767
  9
$PLIMMAX
 10
16.83333269254428
 20
10.74999976345873
  9
$UNITMODE
 70
     0
  9
$VISRETAIN
 70
     0
  9
$PLINEGEN
 70
     1
  9
$PSLTSCALE
 70
     0
  9
$TREEDEPTH
 70
  3020
  9
$PICKSTYLE
 70
     1
  9
$CMLSTYLE
  2
STANDARD
  9
$CMLJUST
 70
     0
  9
$CMLSCALE
 40
1.0
  9
$PROXYGRAPHICS
 70
     1
  9
$MEASUREMENT
 70
     0
  0
ENDSEC
  0
SECTION
  2
CLASSES
  0
CLASS
  1
LWPOLYLINE
  2
AcDbPolyline
  3
AutoCAD 2000
 90
        0
280
     0
281
     1
  0
CLASS
  1
IMAGE
  2
AcDbRasterImage
  3
ISM
 90
      127
280
     1
281
     1
  0
CLASS
  1
OLE2FRAME
  2
AcDbOle2Frame
  3
AutoCAD 2000
 90
        0
280
     0
281
     1
  0
CLASS
  1
HATCH
  2
AcDbHatch
  3
AutoCAD 2000
 90
        0
280
     0
281
     1
  0
CLASS
  1
DICTIONARYVAR
  2
AcDbDictionaryVar
  3
AutoCAD 2000
 90
        0
280
     0
281
     0
  0
CLASS
  1
RASTERVARIABLES
  2
AcDbRasterVariables
  3
ISM
 90
        0
280
     1
281
     0
  0
CLASS
  1
IMAGEDEF
  2
AcDbRasterImageDef
  3
ISM
 90
        0
280
     1
281
     0
  0
CLASS
  1
IMAGEDEF_REACTOR
  2
AcDbRasterImageDefReactor
  3
ISM
 90
        1
280
     1
281
     0
  0
CLASS
  1
IDBUFFER
  2
AcDbIdBuffer
  3
AutoCAD 2000
 90
        0
280
     0
281
     0
  0
CLASS
  1
SPATIAL_FILTER
  2
AcDbSpatialFilter
  3
AutoCAD 2000
 90
        0
280
     0
281
     0
  0
CLASS
  1
XRECORD
  2
AcDbXrecord
  3
AutoCAD 2000
 90
        0
280
     0
281
     0
  0
CLASS
  1
SORTENTSTABLE
  2
AcDbSortentsTable
  3
AutoCAD 2000
 90
        0
280
     0
281
     0
  0
CLASS
  1
LAYER_INDEX
  2
AcDbLayerIndex
  3
AutoCAD 2000
 90
        0
280
     0
281
     0
  0
CLASS
  1
SPATIAL_INDEX
  2
AcDbSpatialIndex
  3
AutoCAD 2000
 90
        0
280
     0
281
     0
  0
CLASS
  1
OBJECT_PTR
  2
CAseDLPNTableRecord
  3
ASE-LPNTableRecord
 90
        1
280
     0
281
     0
  0
CLASS
  1
LAYOUT
  2
AcDbLayout
  3
AutoCAD 2000
 90
        0
280
     1
281
     0
  0
CLASS
  1
PLOTSETTINGS
  2
AcDbPlotSettings
  3
AutoCAD 2000
 90
        0
280
     1
281
     0
  0
CLASS
  1
ACDBDICTIONARYWDFLT
  2
AcDbDictionaryWithDefault
  3
AutoCAD 2000
 90
        0
280
     1
281
     0
  0
CLASS
  1
ACDBPLACEHOLDER
  2
AcDbPlaceHolder
  3
AutoCAD 2000
 90
        0
280
     1
281
     0
  0
CLASS
  1
VBA_PROJECT
  2
AcDbVbaProject
  3
acadvba
 90
        0
280
     1
281
     0
  0
CLASS
  1
WIPEOUT
  2
AcDbWipeout
  3
"WipeOut|Version(1.0.0.0) Product Desc: Object Enabler for WipeOut entity^I^I^I^I^I^I|Company: Autodesk, Inc.^I^I^I^I^I^I|WEB Address: www.autodesk.com"
 90
      127
280
     1
281
     1
  0
CLASS
  1
WIPEOUTVARIABLES
  2
AcDbWipeoutVariables
  3
WipeOut|AutoCAD Express Tool|expresstools@autodesk.com
 90
        0
280
     1
281
     0
  0
CLASS
  1
RTEXT
  2
RText
  3
RText|AutoCAD Express Tool|expresstools@autodesk.com
 90
        0
280
     1
281
     1
  0
CLASS
  1
ARCALIGNEDTEXT
  2
AcDbArcAlignedText
  3
ATEXT|AutoCAD Express Tool|expresstools@autodesk.com
 90
        0
280
     1
281
     1
  0
CLASS
  1
LONG_TRANSACTION
  2
AcDbLongTransaction
  3
AutoCAD 2000
 90
        0
280
     1
281
     0
  0
CLASS
  1
LWPOLYLINE
  2
AcDbPolyline
  3
AutoCAD 2000
 90
        0
280
     0
281
     1
  0
CLASS
  1
HATCH
  2
AcDbHatch
  3
AutoCAD 2000
 90
        0
280
     0
281
     1
  0
CLASS
  1
XRECORD
  2
AcDbXrecord
  3
AutoCAD 2000
 90
        0
280
     0
281
     0
  0
CLASS
  1
LONG_TRANSACTION
  2
AcDbLongTransaction
  3
AutoCAD 2000
 90
        0
280
     0
281
     0
  0
CLASS
  1
LWPOLYLINE
  2
AcDbPolyline
  3
AutoCAD 2000
 90
        0
280
     0
281
     1
  0
CLASS
  1
HATCH
  2
AcDbHatch
  3
AutoCAD 2000
 90
        0
280
     0
281
     1
  0
CLASS
  1
XRECORD
  2
AcDbXrecord
  3
AutoCAD 2000
 90
        0
280
     0
281
     0
  0
ENDSEC
  0
SECTION
  2
TABLES
  0
TABLE
  2
VPORT
  5
1C
330
0
100
AcDbSymbolTable
 70
     3
  0
VPORT
  5
14B
330
1C
100
AcDbSymbolTableRecord
100
AcDbViewportTableRecord
  2
*ACTIVE
 70
     0
 10
0.0
 20
0.0
 11
1.0
 21
1.0
 12
147.6246496197854
 22
-49.34426192512337
 13
0.0
 23
0.0
 14
1.0
 24
1.0
 15
0.0
 25
0.0
 16
0.0
 26
0.0
 36
1.0
 17
0.0
 27
0.0
 37
0.0
 40
38.49293635104174
 41
1.786792452830188
 42
50.0
 43
0.0
 44
0.0
 50
0.0
 51
0.0
 71
     0
 72
   100
 73
     1
 74
     1
 75
     0
 76
     0
 77
     0
 78
     0
  0
ENDTAB
  0
TABLE
  2
LTYPE
  5
17
330
0
100
AcDbSymbolTable
 70
     3
  0
LTYPE
  5
18
330
17
100
AcDbSymbolTableRecord
100
AcDbLinetypeTableRecord
  2
BYBLOCK
 70
     0
  3

 72
    65
 73
     0
 40
0.0
  0
LTYPE
  5
19
330
17
100
AcDbSymbolTableRecord
100
AcDbLinetypeTableRecord
  2
BYLAYER
 70
     0
  3

 72
    65
 73
     0
 40
0.0
  0
LTYPE
  5
7
330
17
100
AcDbSymbolTableRecord
100
AcDbLinetypeTableRecord
  2
CONTINUOUS
 70
     0
  3
Solid line
 72
    65
 73
     0
 40
0.0
  0
LTYPE
  5
39
330
17
100
AcDbSymbolTableRecord
100
AcDbLinetypeTableRecord
  2
CENTER
 70
     0
  3
____ _ ____ _ ____ _ ____ _ ____ _ ____ _ ____
 72
    65
 73
     4
 40
0.6
 49
0.375
 74
     0
 49
-0.075
 74
     0
 49
0.075
 74
     0
 49
-0.075
 74
     0
  0
LTYPE
  5
4F
330
17
100
AcDbSymbolTableRecord
100
AcDbLinetypeTableRecord
  2
HIDDEN
 70
     0
  3
- - - - - - - - - - - - - - - - - - - -
 72
    65
 73
     2
 40
0.2
 49
0.1
 74
     0
 49
-0.1
 74
     0
  0
ENDTAB
  0
TABLE
  2
LAYER
  5
E
102
{ACAD_XDICTIONARY
360
F
102
}
330
0
100
AcDbSymbolTable
 70
     2
  0
LAYER
  5
6
330
E
100
AcDbSymbolTableRecord
100
AcDbLayerTableRecord
  2
0
 70
     0
 62
     7
  6
CONTINUOUS
  0
LAYER
  5
118
330
E
100
AcDbSymbolTableRecord
100
AcDbLayerTableRecord
  2
CENTER
 70
     0
 62
     1
  6
CENTER
  0
ENDTAB
  0
TABLE
  2
STYLE
  5
15
330
0
100
AcDbSymbolTable
 70
     2
  0
STYLE
  5
16
330
15
100
AcDbSymbolTableRecord
100
AcDbTextStyleTableRecord
  2
STANDARD
 70
     0
 40
0.0
 41
1.0
 50
0.0
 71
     0
 42
1.0
  3
txt
  4

  0
STYLE
  5
27
330
15
100
AcDbSymbolTableRecord
100
AcDbTextStyleTableRecord
  2
ROMANS
 70
     0
 40
0.0
 41
1.0
 50
0.0
 71
     0
 42
1.0
  3
romans.shx
  4

  0
ENDTAB
  0
TABLE
  2
VIEW
  5
1A
330
0
100
AcDbSymbolTable
 70
     0
  0
ENDTAB
  0
TABLE
  2
UCS
  5
1B
330
0
100
AcDbSymbolTable
 70
     0
  0
ENDTAB
  0
TABLE
  2
APPID
  5
1E
330
0
100
AcDbSymbolTable
 70
     1
  0
APPID
  5
1F
330
1E
100
AcDbSymbolTableRecord
100
AcDbRegAppTableRecord
  2
ACAD
 70
     0
  0
ENDTAB
  0
TABLE
  2
DIMSTYLE
  5
20
330
0
100
AcDbSymbolTable
 70
     1
  0
DIMSTYLE
105
2B
330
20
100
AcDbSymbolTableRecord
100
AcDbDimStyleTableRecord
  2
STANDARD
 70
     0
  3
\X
  4
cm
  5

  6

  7

 40
16.0
 41
0.1
 42
0.0625
 43
0.25
 44
0.1
 45
0.0
 46
0.0
 47
0.0
 48
0.0
140
0.1
141
0.09
142
0.0
143
2.54
144
1.0
145
0.0
146
1.0
147
0.08
 71
     0
 72
     0
 73
     1
 74
     1
 75
     0
 76
     0
 77
     0
 78
     4
170
     1
171
     1
172
     0
173
     0
174
     0
175
     0
176
     0
177
     0
178
     0
270
     5
271
     3
272
     3
273
     2
274
     1
340
27
275
     0
280
     0
281
     0
282
     0
283
     1
284
     4
285
     4
286
     4
287
     1
288
     0
  0
ENDTAB
  0
TABLE
  2
BLOCK_RECORD
  5
1
330
0
100
AcDbSymbolTable
 70
     0
  0
BLOCK_RECORD
  5
2
102
{ACAD_XDICTIONARY
360
3
102
}
330
1
100
AcDbSymbolTableRecord
100
AcDbBlockTableRecord
  2
*MODEL_SPACE
  0
BLOCK_RECORD
  5
9
102
{ACAD_XDICTIONARY
360
A
102
}
330
1
100
AcDbSymbolTableRecord
100
AcDbBlockTableRecord
  2
*PAPER_SPACE
  0
ENDTAB
  0
ENDSEC
  0
SECTION
  2
BLOCKS
  0
BLOCK
  5
5
330
2
100
AcDbEntity
  8
0
100
AcDbBlockBegin
  2
*MODEL_SPACE
 70
     0
 10
0.0
 20
0.0
 30
0.0
  3
*MODEL_SPACE
  1

  0
ENDBLK
  5
8
330
2
100
AcDbEntity
  8
0
100
AcDbBlockEnd
  0
BLOCK
  5
C
330
9
100
AcDbEntity
 67
     1
  8
0
100
AcDbBlockBegin
  2
*PAPER_SPACE
 70
     0
 10
0.0
 20
0.0
 30
0.0
  3
*PAPER_SPACE
  1

  0
ENDBLK
  5
D
330
9
100
AcDbEntity
 67
     1
  8
0
100
AcDbBlockEnd
  0
ENDSEC
  0
SECTION
  2
ENTITIES
  0
LINE
  5
2E
330
2
100
AcDbEntity
  8
0
  6
CONTINUOUS
100
AcDbLine
 10
118.0905367893773
 20
-38.94655489603085
 30
0.0
 11
177.5966938063855
 21
-38.94655489603085
 31
0.0
  0
LINE
  5
2F
330
2
100
AcDbEntity
  8
0
  6
CONTINUOUS
100
AcDbLine
 10
177.8436152978814
 20
-38.07311939096418
 30
0.0
 11
117.8436152978814
 21
-38.07311939096418
 31
0.0
  0
LINE
  5
32
330
2
100
AcDbEntity
  8
0
  6
CONTINUOUS
100
AcDbLine
 10
163.760882806096
 20
-57.19655489603086
 30
0.0
 11
124.3745460182821
 21
-57.19670263263526
 31
0.0
  0
LINE
  5
33
330
2
100
AcDbEntity
  8
0
  6
CONTINUOUS
100
AcDbLine
 10
149.1814406248147
 20
-54.76546132106374
 30
0.0
 11
147.5102933448147
 21
-54.76546132106374
 31
0.0
  0
SPLINE
  5
34
330
2
100
AcDbEntity
  8
0
  6
CONTINUOUS
100
AcDbSpline
210
0.0
220
0.0
230
1.0
 70
     8
 71
     3
 72
    10
 73
     6
 74
     4
 42
0.0000000001
 43
0.0000000001
 44
0.0000000001
 40
0.0
 40
0.0
 40
0.0
 40
0.0
 40
0.3789577353155656
 40
0.7600639682787409
 40
1.141681283465727
 40
1.141681283465727
 40
1.141681283465727
 40
1.141681283465727
 10
150.142564982148
 20
-41.16997621016419
 30
0.0
 10
150.0183413125769
 20
-41.19297134123979
 30
0.0
 10
149.7691896883996
 20
-41.23909197409046
 30
0.0
 10
149.3913942560567
 20
-41.2871704518871
 30
0.0
 10
149.1377451377221
 20
-41.30494929639463
 30
0.0
 10
149.010835596548
 20
-41.31384467523085
 30
0.0
 11
150.142564982148
 21
-41.16997621016419
 31
0.0
 11
149.769306742148
 21
-41.23545331629752
 31
0.0
 11
149.391250012548
 21
-41.28356849069752
 31
0.0
 11
149.010835596548
 21
-41.31384467523085
 31
0.0
  0
SPLINE
  5
35
330
2
100
AcDbEntity
  8
0
  6
CONTINUOUS
100
AcDbSpline
210
0.0
220
0.0
230
1.0
 70
    24
 71
     3
 72
     8
 73
     4
 74
     2
 42
0.0000000001
 43
0.0000000001
 44
0.0000000001
 40
0.0
 40
0.0
 40
0.0
 40
0.0
 40
0.1998398863687275
 40
0.1998398863687275
 40
0.1998398863687275
 40
0.1998398863687275
 10
148.9973213586814
 20
-41.14391528216418
 30
0.0
 10
149.0627577622369
 20
-41.13144899878641
 30
0.0
 10
149.1281941657925
 20
-41.11898271540863
 30
0.0
 10
149.193630569348
 20
-41.10651643203086
 30
0.0
 11
148.9973213586814
 21
-41.14391528216418
 31
0.0
 11
149.193630569348
 21
-41.10651643203086
 31
0.0
  0
LINE
  5
36
330
2
100
AcDbEntity
  8
0
  6
CONTINUOUS
100
AcDbLine
 10
120.2746363730814
 20
-43.75905489389753
 30
0.0
 11
121.8646029384147
 21
-54.67986870418361
 31
0.0
  0
ARC
  5
37
330
2
100
AcDbEntity
  8
0
  6
CONTINUOUS
100
AcDbCircle
 10
124.374536966148
 20
-54.67916881938361
 30
0.0
 40
2.509934125866666
100
AcDbArc
 50
180.0159766930991
 51
269.9999999999993
  0
LINE
  5
38
330
2
100
AcDbEntity
  8
CENTER
100
AcDbLine
 10
125.8436152978814
 20
-61.75659472730544
 30
0.0
 11
125.8436152978814
 21
-54.12822831929092
 31
0.0
  0
LINE
  5
3A
330
2
100
AcDbEntity
  8
0
  6
CONTINUOUS
100
AcDbLine
 10
124.4633549928147
 20
-58.44655489603085
 30
0.0
 11
127.223875602948
 21
-58.44655489603085
 31
0.0
  0
LINE
  5
3B
330
2
100
AcDbEntity
  8
0
  6
CONTINUOUS
100
AcDbLine
 10
124.4633549928147
 20
-58.44655489603085
 30
0.0
 11
124.1196049928147
 21
-57.18916874471695
 31
0.0
  0
LINE
  5
3C
330
2
100
AcDbEntity
  8
0
  6
CONTINUOUS
100
AcDbLine
 10
127.223875602948
 20
-58.44655489603085
 30
0.0
 11
127.567625602948
 21
-57.18916874471695
 31
0.0
  0
LINE
  5
3D
330
2
100
AcDbEntity
  8
0
  6
CONTINUOUS
100
AcDbLine
 10
117.8436152978814
 20
-40.44655489603085
 30
0.0
 11
117.8436152978814
 21
-38.07311939096418
 31
0.0
  0
SPLINE
  5
3E
330
2
100
AcDbEntity
  8
0
  6
CONTINUOUS
100
AcDbSpline
210
0.0
220
0.0
230
1.0
 70
     8
 71
     3
 72
    12
 73
     8
 74
     6
 42
0.0000000001
 43
0.0000000001
 44
0.0000000001
 40
0.0
 40
0.0
 40
0.0
 40
0.0
 40
0.3436959208772763
 40
0.6635794230882227
 40
0.9390763733917415
 40
1.149390207132416
 40
1.282507709346552
 40
1.282507709346552
 40
1.282507709346552
 40
1.282507709346552
 10
120.1047779688147
 20
-42.44655489603085
 30
0.0
 10
120.0886487272458
 20
-42.33313035728992
 30
0.0
 10
120.0575077326486
 20
-42.11413971640707
 30
0.0
 10
120.011284234567
 20
-41.80454355945293
 30
0.0
 10
119.9704209811827
 20
-41.53910521395274
 30
0.0
 10
119.9382403500125
 20
-41.33532044306521
 30
0.0
 10
119.9200036429366
 20
-41.22230522445993
 30
0.0
 10
119.9129349085481
 20
-41.17849936856418
 30
0.0
 11
120.1047779688147
 21
-42.44655489603085
 31
0.0
 11
120.0559819698814
 21
-42.10634049816419
 31
0.0
 11
120.0088423560147
 21
-41.78994942403085
 31
0.0
 11
119.966915660548
 21
-41.51766148483085
 31
0.0
 11
119.9340839752147
 21
-41.30992610243086
 31
0.0
 11
119.9129349085481
 21
-41.17849936856418
 31
0.0
  0
LINE
  5
3F
330
2
100
AcDbEntity
  8
CENTER
 48
0.5
100
AcDbLine
 10
123.6429695922814
 20
-42.44655489603085
 30
0.0
 11
116.8905748221481
 21
-42.44655489603085
 31
0.0
  0
SPLINE
  5
40
330
2
100
AcDbEntity
  8
0
  6
CONTINUOUS
100
AcDbSpline
210
0.0
220
0.0
230
1.0
 70
     8
 71
     3
 72
    13
 73
     9
 74
     7
 42
0.0000000001
 43
0.0000000001
 44
0.0000000001
 40
0.0
 40
0.0
 40
0.0
 40
0.0
 40
0.1085031562961896
 40
0.2448521325313421
 40
0.4136819621109125
 40
0.6191331286060232
 40
0.8722266170192364
 40
1.177574494096851
 40
1.177574494096851
 40
1.177574494096851
 40
1.177574494096851
 10
120.257322918148
 20
-43.61418908163085
 30
0.0
 10
120.2529684225543
 20
-43.57828444455928
 30
0.0
 10
120.2431419108783
 20
-43.49726074667957
 30
0.0
 10
120.2261952664502
 20
-43.36041190384908
 30
0.0
 10
120.2048775398409
 20
-43.1915419157193
 30
0.0
 10
120.1780183295988
 20
-42.98414883116387
 30
0.0
 10
120.1444432780047
 20
-42.73174003375838
 30
0.0
 10
120.1187995812149
 20
-42.54736730730869
 30
0.0
 10
120.1047779688147
 20
-42.44655489603085
 30
0.0
 11
120.257322918148
 21
-43.61418908163085
 31
0.0
 11
120.2442193810814
 21
-43.50648006509752
 31
0.0
 11
120.227478188548
 21
-43.37116274989752
 31
0.0
 11
120.206325359748
 21
-43.20366328963085
 31
0.0
 11
120.179953010948
 21
-42.99991177176418
 31
0.0
 11
120.1465143058814
 21
-42.74903696856418
 31
0.0
 11
120.1047779688147
 21
-42.44655489603085
 31
0.0
  0
SPLINE
  5
41
330
2
100
AcDbEntity
  8
0
  6
CONTINUOUS
100
AcDbSpline
210
0.0
220
0.0
230
1.0
 70
     8
 71
     3
 72
     9
 73
     5
 74
     3
 42
0.0000000001
 43
0.0000000001
 44
0.0000000001
 40
0.0
 40
0.0
 40
0.0
 40
0.0
 40
0.0164275897661125
 40
0.0655709492372499
 40
0.0655709492372499
 40
0.0655709492372499
 40
0.0655709492372499
 10
120.2746363730814
 20
-43.75905489603085
 30
0.0
 10
120.2739927817334
 20
-43.7536169856025
 30
0.0
 10
120.2714238780654
 20
-43.73191149175156
 30
0.0
 10
120.2688372096517
 20
-43.7102081065522
 30
0.0
 10
120.2668985832147
 20
-43.69394210349752
 30
0.0
 11
120.2746363730814
 21
-43.75905489603085
 31
0.0
 11
120.2727044840147
 21
-43.74274129709752
 31
0.0
 11
120.2668985832147
 21
-43.69394210349752
 31
0.0
  0
SPLINE
  5
42
330
2
100
AcDbEntity
  8
0
  6
CONTINUOUS
100
AcDbSpline
210
0.0
220
0.0
230
1.0
 70
    24
 71
     3
 72
     8
 73
     4
 74
     2
 42
0.0000000001
 43
0.0000000001
 44
0.0000000001
 40
0.0
 40
0.0
 40
0.0
 40
0.0
 40
0.0803258231102175
 40
0.0803258231102175
 40
0.0803258231102175
 40
0.0803258231102175
 10
120.2668985832147
 20
-43.69394210349752
 30
0.0
 10
120.2637066948591
 20
-43.66735776287529
 30
0.0
 10
120.2605148065036
 20
-43.64077342225307
 30
0.0
 10
120.257322918148
 20
-43.61418908163085
 30
0.0
 11
120.2668985832147
 21
-43.69394210349752
 31
0.0
 11
120.257322918148
 21
-43.61418908163085
 31
0.0
  0
LINE
  5
48
330
2
100
AcDbEntity
  8
0
  6
CONTINUOUS
100
AcDbLine
 10
119.8093147336147
 20
-40.44811939096418
 30
0.0
 11
119.9057166824147
 21
-41.13405489603085
 31
0.0
  0
SPLINE
  5
49
330
2
100
AcDbEntity
  8
0
  6
CONTINUOUS
100
AcDbSpline
210
0.0
220
0.0
230
1.0
 70
    24
 71
     3
 72
     8
 73
     4
 74
     2
 42
0.0000000001
 43
0.0000000001
 44
0.0000000001
 40
0.0
 40
0.0
 40
0.0
 40
0.0
 40
0.0450268113200211
 40
0.0450268113200211
 40
0.0450268113200211
 40
0.0450268113200211
 10
119.9129349085481
 20
-41.17849936856418
 30
0.0
 10
119.9105288331703
 20
-41.16368454509752
 30
0.0
 10
119.9081227577925
 20
-41.14886972163086
 30
0.0
 10
119.9057166824147
 20
-41.13405489816418
 30
0.0
 11
119.9129349085481
 21
-41.17849936856418
 31
0.0
 11
119.9057166824147
 21
-41.13405489816418
 31
0.0
  0
ARC
  5
4B
330
2
100
AcDbEntity
  8
0
  6
CONTINUOUS
100
AcDbCircle
 10
118.2848553288147
 20
-38.69655489603085
 30
0.0
 40
0.25
100
AcDbArc
 50
189.0008696849995
 51
269.9999999999997
  0
ARC
  5
4C
330
2
100
AcDbEntity
  8
0
  6
CONTINUOUS
100
AcDbCircle
 10
118.0905367893773
 20
-39.19655489603085
 30
0.0
 40
0.25
100
AcDbArc
 50
90.00000000000019
 51
170.9991303150004
  0
LINE
  5
4D
330
2
100
AcDbEntity
  8
0
  6
CONTINUOUS
100
AcDbLine
 10
117.9329862540559
 20
-38.07311939096418
 30
0.0
 11
118.0379338365481
 21
-38.73566726083085
 31
0.0
  0
LWPOLYLINE
  5
4E
330
2
100
AcDbEntity
  8
0
  6
HIDDEN
 62
     9
 48
0.5
100
AcDbPolyline
 90
        7
 70
     0
 43
0.0
 10
142.456220041348
 20
-41.51894610989752
 10
144.349515858948
 20
-41.99822197763086
 10
144.8065413448147
 20
-42.13212207043085
 10
145.2626843570814
 20
-42.26852438616418
 10
145.7136926088147
 20
-42.40615734723085
 10
146.155361679748
 20
-42.54373790296418
 10
147.6777366578814
 20
-43.08497821016419
  0
LINE
  5
50
330
2
100
AcDbEntity
  8
0
  6
HIDDEN
 62
     9
 48
0.5
100
AcDbLine
 10
148.519931033348
 20
-42.30781061123085
 30
0.0
 11
147.9897902717481
 21
-42.14766392323086
 31
0.0
  0
SPLINE
  5
51
330
2
100
AcDbEntity
  8
0
  6
HIDDEN
 62
     9
 48
0.5
100
AcDbSpline
210
0.0
220
0.0
230
1.0
 70
     8
 71
     3
 72
    15
 73
    11
 74
     9
 42
0.0000000001
 43
0.0000000001
 44
0.0000000001
 40
0.0
 40
0.0
 40
0.0
 40
0.0
 40
0.0414189264333949
 40
0.0829319505128856
 40
0.1244020349737779
 40
0.1657920361967908
 40
0.2071117375845512
 40
0.2484606626164478
 40
0.2899623166423337
 40
0.3316682306618817
 40
0.3316682306618817
 40
0.3316682306618817
 40
0.3316682306618817
 10
147.7369661490814
 20
-42.32373139309753
 30
0.0
 10
147.7415454625464
 20
-42.31067065581391
 30
0.0
 10
147.7507144929962
 20
-42.28451950919238
 30
0.0
 10
147.7727090532769
 20
-42.24900250021398
 30
0.0
 10
147.7999430237618
 20
-42.2175375491058
 30
0.0
 10
147.8321417384531
 20
-42.19119984013431
 30
0.0
 10
147.8681798317686
 20
-42.1705212113049
 30
0.0
 10
147.9071343501087
 20
-42.15610896659204
 30
0.0
 10
147.9480624830523
 20
-42.14766360206339
 30
0.0
 10
147.9758582642593
 20
-42.14766381599997
 30
0.0
 10
147.989790271748
 20
-42.14766392323085
 30
0.0
 11
147.7369661490814
 21
-42.32373139309753
 31
0.0
 11
147.7520743560147
 21
-42.28516625923085
 31
0.0
 11
147.773592351748
 21
-42.24966545603085
 31
0.0
 11
147.8007974290814
 21
-42.21836606829752
 31
0.0
 11
147.832806226948
 21
-42.19212546883085
 31
0.0
 11
147.868651020548
 21
-42.17157143043085
 31
0.0
 11
147.9073933480147
 21
-42.15712270509752
 31
0.0
 11
147.9481084402814
 21
-42.14908102936418
 31
0.0
 11
147.989790271748
 21
-42.14766392323085
 31
0.0
  0
SPLINE
  5
52
330
2
100
AcDbEntity
  8
0
  6
HIDDEN
 62
     9
 48
0.5
100
AcDbSpline
210
0.0
220
0.0
230
1.0
 70
     8
 71
     3
 72
    19
 73
    15
 74
    13
 42
0.0000000001
 43
0.0000000001
 44
0.0000000001
 40
0.0
 40
0.0
 40
0.0
 40
0.0
 40
0.3267210060847721
 40
0.6517157740688812
 40
0.9761967224099487
 40
1.300955812560119
 40
1.620152789253475
 40
1.92208646816221
 40
2.204885642829824
 40
2.47497413616794
 40
2.743958074402935
 40
3.036289001896387
 40
3.348323575344787
 40
3.665309953615549
 40
3.665309953615549
 40
3.665309953615549
 40
3.665309953615549
 10
148.1372967762814
 20
-41.68192362776419
 30
0.0
 10
148.0285700447495
 20
-41.66699951407183
 30
0.0
 10
147.8116910419227
 20
-41.63723013859196
 30
0.0
 10
147.4887681044127
 20
-41.71780711093087
 30
0.0
 10
147.2042849723169
 20
-41.88192318477925
 30
0.0
 10
146.9801424334613
 20
-42.12081885345317
 30
0.0
 10
146.8340397403461
 20
-42.40454066976324
 30
0.0
 10
146.7695202913231
 20
-42.70217364301241
 30
0.0
 10
146.7781488227092
 20
-42.98963750166321
 30
0.0
 10
146.8494588995764
 20
-43.25651834764284
 30
0.0
 10
146.9810070980335
 20
-43.5035192212323
 30
0.0
 10
147.1786925117022
 20
-43.72055788096367
 30
0.0
 10
147.441723724142
 20
-43.89152605708847
 30
0.0
 10
147.6485740936381
 20
-43.93434157665825
 30
0.0
 10
147.7528134664147
 20
-43.95591786349752
 30
0.0
 11
148.1372967762814
 21
-41.68192362776419
 31
0.0
 11
147.8114416434814
 21
-41.65815288429752
 31
0.0
 11
147.494906434948
 21
-41.73182147309751
 31
0.0
 11
147.214187106948
 21
-41.89456220163085
 31
0.0
 11
146.9914642066814
 21
-42.13091570029752
 31
0.0
 11
146.8450018610814
 21
-42.41452721496418
 31
0.0
 11
146.780856367748
 21
-42.70956840216419
 31
0.0
 11
146.7893676818813
 21
-42.99223946669751
 31
0.0
 11
146.859224610948
 21
-43.25313753816419
 31
0.0
 11
146.9860947144147
 21
-43.49032171949752
 31
0.0
 11
147.1825936360147
 21
-43.70676003629752
 31
0.0
 11
147.4470218674813
 21
-43.87242018669751
 31
0.0
 11
147.7528134664147
 21
-43.95591786349752
 31
0.0
  0
SPLINE
  5
53
330
2
100
AcDbEntity
  8
0
  6
HIDDEN
 62
     9
 48
0.5
100
AcDbSpline
210
0.0
220
0.0
230
1.0
 70
     8
 71
     3
 72
    11
 73
     7
 74
     5
 42
0.0000000001
 43
0.0000000001
 44
0.0000000001
 40
0.0
 40
0.0
 40
0.0
 40
0.0
 40
0.3912018704645157
 40
0.7834173932794279
 40
1.17148583995726
 40
1.552202942066275
 40
1.552202942066275
 40
1.552202942066275
 40
1.552202942066275
 10
148.073057311748
 20
-43.94528689069752
 30
0.0
 10
148.1995801481078
 20
-43.90844908296573
 30
0.0
 10
148.4529536571189
 20
-43.83467801619372
 30
0.0
 10
148.7557436406591
 20
-43.57280107193128
 30
0.0
 10
148.9671108121039
 20
-43.23755862598729
 30
0.0
 10
149.0040817739489
 20
-42.98140522914954
 30
0.0
 10
149.0223904914814
 20
-42.85455323629752
 30
0.0
 11
148.073057311748
 21
-43.94528689069752
 31
0.0
 11
148.4399371538814
 21
-43.80949998083085
 31
0.0
 11
148.741751158148
 21
-43.55901779949752
 31
0.0
 11
148.9422066408147
 21
-43.22673069656419
 31
0.0
 11
149.0223904914814
 21
-42.85455323629752
 31
0.0
  0
SPLINE
  5
54
330
2
100
AcDbEntity
  8
0
  6
HIDDEN
 62
     9
 48
0.5
100
AcDbSpline
210
0.0
220
0.0
230
1.0
 70
    24
 71
     3
 72
     8
 73
     4
 74
     2
 42
0.0000000001
 43
0.0000000001
 44
0.0000000001
 40
0.0
 40
0.0
 40
0.0
 40
0.0
 40
0.0039924565760314
 40
0.0039924565760314
 40
0.0039924565760314
 40
0.0039924565760314
 10
147.6828495432147
 20
-43.08881390936418
 30
0.0
 10
147.681715558148
 20
-43.08811737745307
 30
0.0
 10
147.6805815730814
 20
-43.08742084554197
 30
0.0
 10
147.6794475880147
 20
-43.08672431363085
 30
0.0
 11
147.6828495432147
 21
-43.08881390936418
 31
0.0
 11
147.6794475880147
 21
-43.08672431363085
 31
0.0
  0
SPLINE
  5
55
330
2
100
AcDbEntity
  8
0
  6
HIDDEN
 62
     9
 48
0.5
100
AcDbSpline
210
0.0
220
0.0
230
1.0
 70
     8
 71
     3
 72
    10
 73
     6
 74
     4
 42
0.0000000001
 43
0.0000000001
 44
0.0000000001
 40
0.0
 40
0.0
 40
0.0
 40
0.0
 40
0.0051516948582237
 40
0.006330168505497
 40
0.0063923207292565
 40
0.0063923207292565
 40
0.0063923207292565
 40
0.0063923207292565
 10
147.6777366578814
 20
-43.08497821016419
 30
0.0
 10
147.6790762773794
 20
-43.08605437589686
 30
0.0
 10
147.680722340935
 20
-43.08737671943916
 30
0.0
 10
147.6825118672252
 20
-43.08854082046235
 30
0.0
 10
147.6828334335535
 20
-43.08880088098844
 30
0.0
 10
147.6828495432147
 20
-43.08881390936418
 30
0.0
 11
147.6777366578814
 21
-43.08497821016419
 31
0.0
 11
147.681839010948
 21
-43.08809440323085
 31
0.0
 11
147.6828011496147
 21
-43.08877490989751
 31
0.0
 11
147.6828495432147
 21
-43.08881390936418
 31
0.0
  0
LINE
  5
56
330
2
100
AcDbEntity
  8
0
  6
HIDDEN
 62
     9
 48
0.5
100
AcDbLine
 10
147.706592809348
 20
-43.10499621656419
 30
0.0
 11
147.6777411784147
 21
-43.08497260803085
 31
0.0
  0
LINE
  5
57
330
2
100
AcDbEntity
  8
0
  6
HIDDEN
 62
     9
 48
0.5
100
AcDbLine
 10
147.6794322834814
 20
-43.08672000536419
 30
0.0
 11
147.706592809348
 21
-43.10499621656419
 31
0.0
  0
SPLINE
  5
58
330
2
100
AcDbEntity
  8
0
  6
HIDDEN
 62
     9
 48
0.5
100
AcDbSpline
210
0.0
220
0.0
230
1.0
 70
     8
 71
     3
 72
    15
 73
    11
 74
     9
 42
0.0000000001
 43
0.0000000001
 44
0.0000000001
 40
0.0
 40
0.0
 40
0.0
 40
0.0
 40
0.0068972720901052
 40
0.0487861054600153
 40
0.090534561506726
 40
0.1321582730566696
 40
0.1736908998673867
 40
0.2151624286786848
 40
0.2566050077322731
 40
0.2979387052039524
 40
0.2979387052039524
 40
0.2979387052039524
 40
0.2979387052039524
 10
147.6777407378814
 20
-43.08497316056419
 30
0.0
 10
147.6759559136783
 20
-43.08352401382406
 30
0.0
 10
147.6633314121852
 20
-43.07327384176083
 30
0.0
 10
147.6418207664969
 20
-43.05188366027377
 30
0.0
 10
147.6171003313563
 20
-43.01802560454552
 30
0.0
 10
147.5982559060007
 20
-42.98069233490574
 30
0.0
 10
147.5857519413263
 20
-42.94086215919306
 30
0.0
 10
147.580159817476
 20
-42.89960648771592
 30
0.0
 10
147.5810895073716
 20
-42.85789765610367
 30
0.0
 10
147.5876134086079
 20
-42.83101888953104
 30
0.0
 10
147.590871068548
 20
-42.81759718403085
 30
0.0
 11
147.6777407378814
 21
-43.08497316056419
 31
0.0
 11
147.672406914948
 21
-43.08060021016419
 31
0.0
 11
147.6426317266814
 21
-43.05113646083085
 31
0.0
 11
147.6180474216147
 21
-43.01739412056418
 31
0.0
 11
147.599295145348
 21
-42.98023385283086
 31
0.0
 11
147.586896998148
 21
-42.94059491949751
 31
0.0
 11
147.5812458322814
 21
-42.89951022616419
 31
0.0
 11
147.582570338948
 21
-42.85808881816418
 31
0.0
 11
147.590871068548
 21
-42.81759718403085
 31
0.0
  0
LWPOLYLINE
  5
59
330
2
100
AcDbEntity
  8
0
  6
HIDDEN
 62
     9
 48
0.5
100
AcDbPolyline
 90
        8
 70
     0
 43
0.0
 10
148.519931033348
 20
-42.30781061123085
 10
148.596754402948
 20
-42.34082287683085
 10
148.6644002642814
 20
-42.39018150936419
 10
148.7194765704147
 20
-42.45341146136419
 10
148.759221567748
 20
-42.52734211736418
 10
148.7816422738814
 20
-42.60826628696419
 10
148.785614422148
 20
-42.69212609283085
 10
148.770938831748
 20
-42.77471645656418
  0
LINE
  5
5A
330
2
100
AcDbEntity
  8
0
  6
HIDDEN
 62
     9
 48
0.5
100
AcDbLine
 10
148.8672029359177
 20
-42.55024877705873
 30
0.0
 11
149.0223902984147
 21
-42.85455331309752
 31
0.0
  0
LWPOLYLINE
  5
5B
330
2
100
AcDbEntity
  8
0
  6
HIDDEN
 62
     9
 48
0.5
100
AcDbPolyline
 90
        6
 70
     0
 43
0.0
 10
148.7001394664147
 20
-43.01404952963085
 10
148.6675520328147
 20
-43.09122902403085
 10
148.6186868274814
 20
-43.15912754669752
 10
148.5559941544147
 20
-43.21434038296419
 10
148.482617686148
 20
-43.25409893016418
 10
148.4302807528147
 20
-43.27080998296419
  0
CIRCLE
  5
5C
330
2
100
AcDbEntity
  8
0
  6
HIDDEN
 62
     9
 48
0.5
100
AcDbCircle
 10
148.1324514263988
 20
-42.68603261501257
 30
0.0
 40
0.2470624798043559
  0
LINE
  5
5D
330
2
100
AcDbEntity
  8
0
  6
HIDDEN
 62
     9
 48
0.5
100
AcDbLine
 10
148.2367335709481
 20
-43.26514290563086
 30
0.0
 11
147.706592809348
 21
-43.10499621656419
 31
0.0
  0
LWPOLYLINE
  5
5E
330
2
100
AcDbEntity
  8
0
  6
HIDDEN
 62
     9
 48
0.5
100
AcDbPolyline
 90
        7
 70
     0
 43
0.0
 10
142.739417503748
 20
-40.56161381549752
 10
144.6327133224147
 20
-41.04088968429752
 10
145.0897388082814
 20
-41.17478977603085
 10
145.545881820548
 20
-41.31119209176419
 10
145.9968900712147
 20
-41.44882505389752
 10
146.4385591432147
 20
-41.58640560856419
 10
147.989790271748
 20
-42.14766392323085
  0
SPLINE
  5
5F
330
2
100
AcDbEntity
  8
0
  6
HIDDEN
 62
     9
 48
0.5
100
AcDbSpline
210
0.0
220
0.0
230
1.0
 70
     8
 71
     3
 72
    16
 73
    12
 74
    10
 42
0.0000000001
 43
0.0000000001
 44
0.0000000001
 40
0.0
 40
0.0
 40
0.0
 40
0.0
 40
0.3039728088003528
 40
0.6146432899865335
 40
0.9242032386644893
 40
1.237494837260677
 40
1.549159947161544
 40
1.841838924146854
 40
2.118913905411264
 40
2.389582290379719
 40
2.545044287285265
 40
2.545044287285265
 40
2.545044287285265
 40
2.545044287285265
 10
142.008678508548
 20
-42.07634671469752
 30
0.0
 10
142.1093588352551
 20
-42.09271977512233
 30
0.0
 10
142.3129378576301
 20
-42.12582665651205
 30
0.0
 10
142.6213384130555
 20
-42.06267052738748
 30
0.0
 10
142.9000098080997
 20
-41.91583530975267
 30
0.0
 10
143.1229343846455
 20
-41.69112736718317
 30
0.0
 10
143.268301732575
 20
-41.41730590348119
 30
0.0
 10
143.3314408888301
 20
-41.12672969839635
 30
0.0
 10
143.3198620996139
 20
-40.84446878631044
 30
0.0
 10
143.2568649722503
 20
-40.61564254174946
 30
0.0
 10
143.1897580621739
 20
-40.49024026190688
 30
0.0
 10
143.1652759442814
 20
-40.44449067523085
 30
0.0
 11
142.008678508548
 21
-42.07634671469752
 31
0.0
 11
142.311092086148
 21
-42.10709564269752
 31
0.0
 11
142.6162349330814
 21
-42.04875191256419
 31
0.0
 11
142.889669180548
 21
-41.90362757229752
 31
0.0
 11
143.1107376456147
 21
-41.68163577176418
 31
0.0
 11
143.2573611762814
 21
-41.40661453443086
 31
0.0
 11
143.3197173618814
 21
-41.12065528963086
 31
0.0
 11
143.3091486994813
 21
-40.84378194563085
 31
0.0
 11
143.2348716136147
 21
-40.58350461443086
 31
0.0
 11
143.1652759442814
 21
-40.44449067523085
 31
0.0
  0
LINE
  5
60
330
2
100
AcDbEntity
  8
0
  6
HIDDEN
 62
     9
 48
0.5
100
AcDbLine
 10
141.1299614098814
 20
-40.90388069123085
 30
0.0
 11
141.4673389170814
 21
-40.44811939096418
 31
0.0
  0
LWPOLYLINE
  5
61
330
2
100
AcDbEntity
  8
0
  6
HIDDEN
 62
     9
 48
0.5
100
AcDbPolyline
 90
        6
 70
     0
 43
0.0
 10
142.1419770354814
 20
-40.90257777176418
 10
142.1606656530814
 20
-40.85737729816418
 10
142.1882999762814
 20
-40.81710138776418
 10
142.223672252548
 20
-40.78351029016419
 10
142.2652365426814
 20
-40.75807209709752
 10
142.3106991122814
 20
-40.74201242029753
  0
LWPOLYLINE
  5
62
330
2
100
AcDbEntity
  8
0
  6
HIDDEN
 62
     9
 48
0.5
100
AcDbPolyline
 90
       11
 70
     0
 43
0.0
 10
142.3106991122814
 20
-40.74201242029753
 10
142.3594837000147
 20
-40.73569660056419
 10
142.4080475154814
 20
-40.73973721283086
 10
142.4547452616147
 20
-40.75384382296419
 10
142.497536022148
 20
-40.77739990616419
 10
142.534549634948
 20
-40.80937594669752
 10
142.5641684296147
 20
-40.84837443843085
 10
142.5850979218814
 20
-40.89269096109751
 10
142.596423391748
 20
-40.94038866989752
 10
142.597649862148
 20
-40.98938294509752
 10
142.588723730948
 20
-41.03753250243086
  0
LWPOLYLINE
  5
63
330
2
100
AcDbEntity
  8
0
  6
HIDDEN
 62
     9
 48
0.5
100
AcDbPolyline
 90
        8
 70
     0
 43
0.0
 10
141.926079279748
 20
-41.35879942189752
 10
141.8492559101481
 20
-41.32578715523085
 10
141.7816100488147
 20
-41.27642852269752
 10
141.7265337426814
 20
-41.21319857176419
 10
141.686788745348
 20
-41.13926791576419
 10
141.6643680392147
 20
-41.05834374616419
 10
141.660395890948
 20
-40.97448393923086
 10
141.675071481348
 20
-40.89189357656418
  0
SPLINE
  5
64
330
2
100
AcDbEntity
  8
0
  6
HIDDEN
 62
     9
 48
0.5
100
AcDbSpline
210
0.0
220
0.0
230
1.0
 70
     8
 71
     3
 72
    15
 73
    11
 74
     9
 42
0.0000000001
 43
0.0000000001
 44
0.0000000001
 40
0.0
 40
0.0
 40
0.0
 40
0.0
 40
0.0414189274265676
 40
0.0829319515060583
 40
0.1244020359669638
 40
0.1657920363650567
 40
0.2071117386781704
 40
0.2484606633373132
 40
0.2899623175698844
 40
0.3316682315894609
 40
0.3316682315894609
 40
0.3316682315894609
 40
0.3316682315894609
 10
142.7090441640147
 20
-41.34287863896418
 30
0.0
 10
142.7044648505945
 20
-41.35593937661901
 30
0.0
 10
142.6952958203444
 20
-41.38209052366994
 30
0.0
 10
142.6733012598406
 20
-41.41760753295717
 30
0.0
 10
142.6460672893606
 20
-41.44907248362573
 30
0.0
 10
142.6138685754417
 20
-41.47541019356505
 30
0.0
 10
142.5778304817279
 20
-41.49608882186355
 30
0.0
 10
142.5388759626406
 20
-41.51050106487553
 30
0.0
 10
142.4979478302033
 20
-41.51894643148075
 30
0.0
 10
142.4701520488669
 20
-41.51894621726722
 30
0.0
 10
142.456220041348
 20
-41.51894610989752
 30
0.0
 11
142.7090441640147
 21
-41.34287863896418
 31
0.0
 11
142.6939359570814
 21
-41.38144377389752
 31
0.0
 11
142.672417961348
 21
-41.41694457709752
 31
0.0
 11
142.6452128840147
 21
-41.44824396483085
 31
0.0
 11
142.6132040872147
 21
-41.47448456429752
 31
0.0
 11
142.577359292548
 21
-41.49503860269752
 31
0.0
 11
142.5386169650814
 21
-41.50948732696419
 31
0.0
 11
142.4979018728147
 21
-41.51752900376418
 31
0.0
 11
142.456220041348
 21
-41.51894610989752
 31
0.0
  0
LWPOLYLINE
  5
65
330
2
100
AcDbEntity
  8
0
  6
HIDDEN
 62
     9
 48
0.5
100
AcDbPolyline
 90
        6
 70
     0
 43
0.0
 10
142.588723730948
 20
-41.03753250243086
 10
142.570035113348
 20
-41.08273297496419
 10
142.5424007890813
 20
-41.12300888536418
 10
142.5070285138814
 20
-41.15659998296418
 10
142.465464223748
 20
-41.18203817603085
 10
142.420001654148
 20
-41.19809785389752
  0
LWPOLYLINE
  5
66
330
2
100
AcDbEntity
  8
0
  6
HIDDEN
 62
     9
 48
0.5
100
AcDbPolyline
 90
       11
 70
     0
 43
0.0
 10
142.420001654148
 20
-41.19809785389752
 10
142.3712170664147
 20
-41.20441367363085
 10
142.322653250948
 20
-41.20037306136419
 10
142.2759555048147
 20
-41.18626645016418
 10
142.2331647442813
 20
-41.16271036803086
 10
142.1961511304147
 20
-41.13073432749752
 10
142.1665323368147
 20
-41.09173583469752
 10
142.145602844548
 20
-41.04741931203085
 10
142.1342773746814
 20
-40.99972160429752
 10
142.1330509042814
 20
-40.95072732909752
 10
142.1419770354814
 20
-40.90257777176418
  0
LINE
  5
67
330
2
100
AcDbEntity
  8
0
  6
HIDDEN
 62
     9
 48
0.5
100
AcDbLine
 10
141.926079279748
 20
-41.35879942189752
 30
0.0
 11
142.4562200413481
 21
-41.51894610989752
 31
0.0
  0
SPLINE
  5
68
330
2
100
AcDbEntity
  8
0
  6
HIDDEN
 62
     9
 48
0.5
100
AcDbSpline
210
0.0
220
0.0
230
1.0
 70
     8
 71
     3
 72
    12
 73
     8
 74
     6
 42
0.0000000001
 43
0.0000000001
 44
0.0000000001
 40
0.0
 40
0.0
 40
0.0
 40
0.0
 40
0.3084223342816048
 40
0.6227317277611758
 40
0.9419932337422737
 40
1.26361921918561
 40
1.583465280664809
 40
1.583465280664809
 40
1.583465280664809
 40
1.583465280664809
 10
141.1299614098814
 20
-40.90388069123085
 30
0.0
 10
141.1323353274621
 20
-41.00731487679683
 30
0.0
 10
141.137128475144
 20
-41.21615756400724
 30
0.0
 10
141.255103762022
 20
-41.51417744733035
 30
0.0
 10
141.4467087045707
 20
-41.77137561854677
 30
0.0
 10
141.7030169206961
 20
-41.97390519048347
 30
0.0
 10
141.9069798261135
 20
-42.04226341128488
 30
0.0
 10
142.0086783058813
 20
-42.07634768323085
 30
0.0
 11
141.1299614098814
 21
-40.90388069123085
 31
0.0
 11
141.155038258948
 21
-41.21128187523085
 31
0.0
 11
141.2662329266814
 21
-41.50526510723085
 31
0.0
 11
141.4567616690814
 21
-41.76144220909751
 31
0.0
 11
141.711744511748
 21
-41.95747033069752
 31
0.0
 11
142.0086783058813
 21
-42.07634768323085
 31
0.0
  0
LWPOLYLINE
  5
69
330
2
100
AcDbEntity
  8
0
  6
HIDDEN
 62
     9
 48
0.5
100
AcDbPolyline
 90
        4
 70
     0
 43
0.0
 10
142.0157295602814
 20
-40.39580004909752
 10
142.043773487748
 20
-40.39020050456419
 10
142.1271281096147
 20
-40.38645660056419
 10
142.209276742148
 20
-40.40146712749752
  0
LINE
  5
6A
330
2
100
AcDbEntity
  8
0
  6
HIDDEN
 62
     9
 48
0.5
100
AcDbLine
 10
142.0840227218814
 20
-40.37941373976419
 30
0.0
 11
142.015676828548
 21
-40.39579416003086
 31
0.0
  0
LWPOLYLINE
  5
6B
330
2
100
AcDbEntity
  8
0
  6
HIDDEN
 62
     9
 48
0.5
100
AcDbPolyline
 90
        6
 70
     0
 43
0.0
 10
141.7458708466814
 20
-40.65256050243085
 10
141.7784582802814
 20
-40.57538100909752
 10
141.8273234856147
 20
-40.50748248643086
 10
141.8900161586814
 20
-40.45226965016419
 10
141.963392626948
 20
-40.41251110296419
 10
142.0157295602814
 20
-40.39580004909752
  0
LINE
  5
6C
330
2
100
AcDbEntity
  8
0
  6
HIDDEN
 62
     9
 48
0.5
100
AcDbLine
 10
142.209276742148
 20
-40.40146712749752
 30
0.0
 11
142.739417503748
 21
-40.56161381549752
 31
0.0
  0
SPLINE
  5
6D
330
2
100
AcDbEntity
  8
0
  6
HIDDEN
 62
     9
 48
0.5
100
AcDbSpline
210
0.0
220
0.0
230
1.0
 70
     8
 71
     3
 72
    15
 73
    11
 74
     9
 42
0.0000000001
 43
0.0000000001
 44
0.0000000001
 40
0.0
 40
0.0
 40
0.0
 40
0.0
 40
0.0419978385799628
 40
0.0838861979434256
 40
0.1256341849995298
 40
0.1672576802979221
 40
0.2087904692995735
 40
0.2502624429740389
 40
0.2917055194479491
 40
0.3330395347630517
 40
0.3330395347630517
 40
0.3330395347630517
 40
0.3330395347630517
 10
142.739417503748
 20
-40.56161381549752
 30
0.0
 10
142.751106217771
 20
-40.56937232887259
 30
0.0
 10
142.7744531758856
 20
-40.58486913086843
 30
0.0
 10
142.804158546388
 20
-40.61477216322233
 30
0.0
 10
142.8289175084575
 20
-40.6485711158144
 30
0.0
 10
142.8477517421866
 20
-40.68591978638348
 30
0.0
 10
142.8602587114105
 20
-40.7257458410472
 30
0.0
 10
142.8658503222536
 20
-40.76700297476529
 30
0.0
 10
142.864920918314
 20
-40.80871194531515
 30
0.0
 10
142.8583969372935
 20
-40.83559101914997
 30
0.0
 10
142.855139244548
 20
-40.84901284909752
 30
0.0
 11
142.739417503748
 21
-40.56161381549752
 31
0.0
 11
142.7736031965481
 21
-40.58600965229752
 31
0.0
 11
142.8033781042814
 21
-40.61547301123085
 31
0.0
 11
142.8279622600147
 21
-40.64921488003085
 31
0.0
 11
142.8467146312147
 21
-40.68637485763085
 31
0.0
 11
142.8591130386814
 21
-40.72601387949752
 31
0.0
 11
142.8647644370814
 21
-40.76709898989752
 31
0.0
 11
142.8634400114814
 21
-40.80852089816419
 31
0.0
 11
142.855139244548
 21
-40.84901284909752
 31
0.0
  0
SPLINE
  5
6E
330
2
100
AcDbEntity
  8
0
  6
CONTINUOUS
100
AcDbSpline
210
0.0
220
0.0
230
1.0
 70
     8
 71
     3
 72
     9
 73
     5
 74
     3
 42
0.0000000001
 43
0.0000000001
 44
0.0000000001
 40
0.0
 40
0.0
 40
0.0
 40
0.0
 40
0.3284183217277742
 40
1.316691370937394
 40
1.316691370937394
 40
1.316691370937394
 40
1.316691370937394
 10
146.1539285576147
 20
-40.94771130243086
 30
0.0
 10
146.0499013802832
 20
-40.91344771649599
 30
0.0
 10
145.6328366866484
 20
-40.77607849878464
 30
0.0
 10
145.2353179436216
 20
-40.58824522348355
 30
0.0
 10
144.936951090948
 20
-40.44726263043085
 30
0.0
 11
146.1539285576147
 21
-40.94771130243086
 31
0.0
 11
145.8430630536147
 21
-40.84178098349751
 31
0.0
 11
144.936951090948
 21
-40.44726263043085
 31
0.0
  0
SPLINE
  5
6F
330
2
100
AcDbEntity
  8
0
  6
CONTINUOUS
100
AcDbSpline
210
0.0
220
0.0
230
1.0
 70
     8
 71
     3
 72
    10
 73
     6
 74
     4
 42
0.0000000001
 43
0.0000000001
 44
0.0000000001
 40
0.0
 40
0.0
 40
0.0
 40
0.0
 40
0.0279852712351309
 40
0.0562977209465346
 40
0.0849233191447746
 40
0.0849233191447746
 40
0.0849233191447746
 40
0.0849233191447746
 10
146.1867599538814
 20
-40.95860805976418
 30
0.0
 10
146.1955603829171
 20
-40.96170242262348
 30
0.0
 10
146.2132641276441
 20
-40.96792732483351
 30
0.0
 10
146.2397577320323
 20
-40.97790735819057
 30
0.0
 10
146.2573664148131
 20
-40.98498995412727
 30
0.0
 10
146.2662191784147
 20
-40.98855072856419
 30
0.0
 11
146.1867599538814
 21
-40.95860805976418
 31
0.0
 11
146.213126524548
 21
-40.96798779096419
 31
0.0
 11
146.2396218792147
 21
-40.97796731949752
 31
0.0
 11
146.2662191784147
 21
-40.98855072856419
 31
0.0
  0
SPLINE
  5
70
330
2
100
AcDbEntity
  8
0
  6
CONTINUOUS
100
AcDbSpline
210
0.0
220
0.0
230
1.0
 70
     8
 71
     3
 72
    10
 73
     6
 74
     4
 42
0.0000000001
 43
0.0000000001
 44
0.0000000001
 40
0.0
 40
0.0
 40
0.0
 40
0.0
 40
0.0025762519677586
 40
0.0051441895429574
 40
0.0077038567323873
 40
0.0077038567323873
 40
0.0077038567323873
 40
0.0077038567323873
 10
146.683826239748
 20
-41.10239240963085
 30
0.0
 10
146.6844847181011
 20
-41.10184117460721
 30
0.0
 10
146.6857995496862
 20
-41.10074048357242
 30
0.0
 10
146.6877760191652
 20
-41.09910096873332
 30
0.0
 10
146.6890964295454
 20
-41.09801566191836
 30
0.0
 10
146.6897555698814
 20
-41.09747388376418
 30
0.0
 11
146.683826239748
 21
-41.10239240963085
 31
0.0
 11
146.6858029138814
 21
-41.10074018883085
 31
0.0
 11
146.6877793682814
 21
-41.09910069763086
 31
0.0
 11
146.6897555698814
 21
-41.09747388376418
 31
0.0
  0
SPLINE
  5
71
330
2
100
AcDbEntity
  8
0
  6
CONTINUOUS
100
AcDbSpline
210
0.0
220
0.0
230
1.0
 70
     8
 71
     3
 72
     9
 73
     5
 74
     3
 42
0.0000000001
 43
0.0000000001
 44
0.0000000001
 40
0.0
 40
0.0
 40
0.0
 40
0.0
 40
0.1102531378145588
 40
0.4373726256258486
 40
0.4373726256258486
 40
0.4373726256258486
 40
0.4373726256258486
 10
146.2662550802814
 20
-40.98843001816418
 30
0.0
 10
146.301532895177
 20
-40.9987438999039
 30
0.0
 10
146.4414794838464
 20
-41.03965892170108
 30
0.0
 10
146.5835109676099
 20
-41.07277850210757
 30
0.0
 10
146.689739074948
 20
-41.09754928003085
 30
0.0
 11
146.2662550802814
 21
-40.98843001816418
 31
0.0
 11
146.3722210088147
 21
-41.01887630509752
 31
0.0
 11
146.689739074948
 21
-41.09754928003085
 31
0.0
  0
SPLINE
  5
72
330
2
100
AcDbEntity
  8
0
  6
CONTINUOUS
100
AcDbSpline
210
0.0
220
0.0
230
1.0
 70
     8
 71
     3
 72
    14
 73
    10
 74
     8
 42
0.0000000001
 43
0.0000000001
 44
0.0000000001
 40
0.0
 40
0.0
 40
0.0
 40
0.0
 40
0.0761186387167766
 40
0.1470509068244617
 40
0.2131224652534713
 40
0.2746549498872494
 40
0.3318397447717154
 40
0.3846472296940727
 40
0.4328980143204725
 40
0.4328980143204725
 40
0.4328980143204725
 40
0.4328980143204725
 10
146.683826239748
 20
-41.10239240963085
 30
0.0
 10
146.6591908178362
 20
-41.09631879037151
 30
0.0
 10
146.6115985172747
 20
-41.08458538006823
 30
0.0
 10
146.5428266859852
 20
-41.06676845178186
 30
0.0
 10
146.4788962675111
 20
-41.04966282047985
 30
0.0
 10
146.4195240234671
 20
-41.03325773480531
 30
0.0
 10
146.3645300283095
 20
-41.01761563884379
 30
0.0
 10
146.3138882614457
 20
-41.00285789969015
 30
0.0
 10
146.2816239418524
 20
-40.99317424075791
 30
0.0
 10
146.2662191784147
 20
-40.98855072856419
 30
0.0
 11
146.683826239748
 21
-41.10239240963085
 31
0.0
 11
146.6099577266814
 21
-41.08402151043086
 31
0.0
 11
146.5412831058814
 21
-41.06626811309752
 31
0.0
 11
146.4774589672147
 21
-41.04918214936418
 31
0.0
 11
146.4181487880147
 21
-41.03279467523086
 31
0.0
 11
146.3631442184147
 21
-41.01715504323085
 31
0.0
 11
146.3124509928147
 21
-41.00236222936419
 31
0.0
 11
146.2662191784147
 21
-40.98855072856419
 31
0.0
  0
SPLINE
  5
73
330
2
100
AcDbEntity
  8
0
  6
CONTINUOUS
100
AcDbSpline
210
0.0
220
0.0
230
1.0
 70
     8
 71
     3
 72
    10
 73
     6
 74
     4
 42
0.0000000001
 43
0.0000000001
 44
0.0000000001
 40
0.0
 40
0.0
 40
0.0
 40
0.0
 40
0.2835458628696604
 40
0.5674645426313757
 40
0.8512647889568956
 40
0.8512647889568956
 40
0.8512647889568956
 40
0.8512647889568956
 10
148.1511916744147
 20
-41.23122765123085
 30
0.0
 10
148.2456181015641
 20
-41.22687857075945
 30
0.0
 10
148.434595111323
 20
-41.21817469148012
 30
0.0
 10
148.7170658303284
 20
-41.18907865602031
 30
0.0
 10
148.9039350621573
 20
-41.15907865132121
 30
0.0
 10
148.9973501864147
 20
-41.14408177816419
 30
0.0
 11
148.1511916744147
 21
-41.23122765123085
 31
0.0
 11
148.4343016200147
 21
-41.21551093869752
 31
0.0
 11
148.716726482948
 21
-41.18642462723085
 31
0.0
 11
148.9973501864147
 21
-41.14408177816419
 31
0.0
  0
SPLINE
  5
74
330
2
100
AcDbEntity
  8
0
  6
CONTINUOUS
100
AcDbSpline
210
0.0
220
0.0
230
1.0
 70
     8
 71
     3
 72
    10
 73
     6
 74
     4
 42
0.0000000001
 43
0.0000000001
 44
0.0000000001
 40
0.0
 40
0.0
 40
0.0
 40
0.0
 40
0.2878012520996056
 40
0.575508177001043
 40
0.8625798489173083
 40
0.8625798489173083
 40
0.8625798489173083
 40
0.8625798489173083
 10
149.010835596548
 20
-41.31384467523085
 30
0.0
 10
148.9149926501764
 20
-41.31816589876837
 30
0.0
 10
148.7233381700714
 20
-41.32680692955733
 30
0.0
 10
148.4356896113694
 20
-41.32741740361371
 30
0.0
 10
148.2442428049657
 20
-41.31961161247025
 30
0.0
 10
148.148625196548
 20
-41.31571303043085
 30
0.0
 11
149.010835596548
 21
-41.31384467523085
 31
0.0
 11
148.723241001348
 21
-41.32474923949752
 31
0.0
 11
148.4355347250814
 21
-41.32536016749752
 31
0.0
 11
148.148625196548
 21
-41.31571303043085
 31
0.0
  0
SPLINE
  5
75
330
2
100
AcDbEntity
  8
0
  6
HIDDEN
 62
     9
 48
0.5
100
AcDbSpline
210
0.0
220
0.0
230
1.0
 70
     8
 71
     3
 72
    10
 73
     6
 74
     4
 42
0.0000000001
 43
0.0000000001
 44
0.0000000001
 40
0.0
 40
0.0
 40
0.0
 40
0.0
 40
0.1321295226732843
 40
0.2649676143194153
 40
0.3993665011009526
 40
0.3993665011009526
 40
0.3993665011009526
 40
0.3993665011009526
 10
148.5034064360147
 20
-41.83688576003085
 30
0.0
 10
148.4656200603026
 20
-41.8141976343757
 30
0.0
 10
148.3898446724586
 20
-41.76869971380052
 30
0.0
 10
148.2667603810067
 20
-41.7164261551241
 30
0.0
 10
148.1806205347631
 20
-41.69346727641363
 30
0.0
 10
148.1372990621481
 20
-41.68192079149751
 30
0.0
 11
148.5034064360147
 21
-41.83688576003085
 31
0.0
 11
148.3885833394814
 21
-41.77151093869752
 31
0.0
 11
148.2663079858814
 21
-41.71960047256418
 31
0.0
 11
148.1372990621481
 21
-41.68192079149751
 31
0.0
  0
SPLINE
  5
76
330
2
100
AcDbEntity
  8
0
  6
CONTINUOUS
100
AcDbSpline
210
0.0
220
0.0
230
1.0
 70
     8
 71
     3
 72
    11
 73
     7
 74
     5
 42
0.0000000001
 43
0.0000000001
 44
0.0000000001
 40
0.0
 40
0.0
 40
0.0
 40
0.0
 40
0.3257096271525911
 40
0.6774375646041438
 40
1.058157825858037
 40
1.471015576188221
 40
1.471015576188221
 40
1.471015576188221
 40
1.471015576188221
 10
146.6897555698814
 20
-41.09747388376418
 30
0.0
 10
146.7962146336271
 20
-41.11894044902346
 30
0.0
 10
147.0176369155057
 20
-41.16358836998542
 30
0.0
 10
147.367813568431
 20
-41.20789368291229
 30
0.0
 10
147.7488969638217
 20
-41.23606453642468
 30
0.0
 10
148.0135212783369
 20
-41.23288289521712
 30
0.0
 10
148.1511916744147
 20
-41.23122765123085
 30
0.0
 11
146.6897555698814
 21
-41.09747388376418
 31
0.0
 11
147.0097713416147
 21
-41.15810941016419
 31
0.0
 11
147.3585239208147
 21
-41.20376223576418
 31
0.0
 11
147.7383356061481
 21
-41.23004913389752
 31
0.0
 11
148.1511916744147
 21
-41.23122765123085
 31
0.0
  0
SPLINE
  5
77
330
2
100
AcDbEntity
  8
0
  6
CONTINUOUS
100
AcDbSpline
210
0.0
220
0.0
230
1.0
 70
     8
 71
     3
 72
    10
 73
     6
 74
     4
 42
0.0000000001
 43
0.0000000001
 44
0.0000000001
 40
0.0
 40
0.0
 40
0.0
 40
0.0
 40
0.5357357937523463
 40
1.028518019773796
 40
1.482154100728708
 40
1.482154100728708
 40
1.482154100728708
 40
1.482154100728708
 10
148.148625196548
 20
-41.31571303043085
 30
0.0
 10
147.9704571822021
 20
-41.30293792050681
 30
0.0
 10
147.6284060901543
 20
-41.27841196776162
 30
0.0
 10
147.1392621223109
 20
-41.2045767308952
 30
0.0
 10
146.8313934704735
 20
-41.1355014769878
 30
0.0
 10
146.683826239748
 20
-41.10239240963085
 30
0.0
 11
148.148625196548
 21
-41.31571303043085
 31
0.0
 11
147.6148312360147
 21
-41.27014057816419
 31
0.0
 11
147.1275550216147
 21
-41.19668165656419
 31
0.0
 11
146.683826239748
 21
-41.10239240963085
 31
0.0
  0
SPLINE
  5
78
330
2
100
AcDbEntity
  8
0
  6
CONTINUOUS
100
AcDbSpline
210
0.0
220
0.0
230
1.0
 70
     8
 71
     3
 72
    10
 73
     6
 74
     4
 42
0.0000000001
 43
0.0000000001
 44
0.0000000001
 40
0.0
 40
0.0
 40
0.0
 40
0.0
 40
0.0030561946866877
 40
0.0061168107413254
 40
0.0091817340453203
 40
0.0091817340453203
 40
0.0091817340453203
 40
0.0091817340453203
 10
146.1539343058814
 20
-40.94769344323085
 30
0.0
 10
146.1549047476419
 20
-40.94800337602414
 30
0.0
 10
146.1568470350919
 20
-40.94862368998755
 30
0.0
 10
146.1597590374987
 20
-40.94956571911818
 30
0.0
 10
146.16170041152
 20
-40.95019833553815
 30
0.0
 10
146.1626717810814
 20
-40.95051486616418
 30
0.0
 11
146.1539343058814
 21
-40.94769344323085
 31
0.0
 11
146.156845049348
 21
-40.94862505389752
 31
0.0
 11
146.159757334148
 21
-40.94956631256418
 31
0.0
 11
146.1626717810814
 21
-40.95051486616418
 31
0.0
  0
SPLINE
  5
79
330
2
100
AcDbEntity
  8
0
  6
CONTINUOUS
100
AcDbSpline
210
0.0
220
0.0
230
1.0
 70
     8
 71
     3
 72
    10
 73
     6
 74
     4
 42
0.0000000001
 43
0.0000000001
 44
0.0000000001
 40
0.0
 40
0.0
 40
0.0
 40
0.0
 40
0.0084380965320654
 40
0.0169087550531022
 40
0.0254116801057682
 40
0.0254116801057682
 40
0.0254116801057682
 40
0.0254116801057682
 10
146.1626717810814
 20
-40.95051486616418
 30
0.0
 10
146.165344018998
 20
-40.95139261670488
 30
0.0
 10
146.1706988067991
 20
-40.9531515049605
 30
0.0
 10
146.1787283962629
 20
-40.95584920682331
 30
0.0
 10
146.1840793772966
 20
-40.95768727740222
 30
0.0
 10
146.1867599538814
 20
-40.95860805976418
 30
0.0
 11
146.1626717810814
 21
-40.95051486616418
 31
0.0
 11
146.1706855176147
 21
-40.95315711896418
 31
0.0
 11
146.1787151282814
 21
-40.95585478616419
 31
0.0
 11
146.1867599538814
 21
-40.95860805976418
 31
0.0
  0
LINE
  5
7A
330
2
100
AcDbEntity
  8
0
  6
HIDDEN
 62
     9
 48
0.5
100
AcDbLine
 10
148.5034064360147
 20
-41.83688576003086
 30
0.0
 11
148.6892430373982
 21
-42.20128992189753
 31
0.0
  0
LINE
  5
7B
330
2
100
AcDbEntity
  8
0
  6
CONTINUOUS
100
AcDbLine
 10
173.0909774354814
 20
-40.44811939096418
 30
0.0
 11
166.2694185214426
 21
-54.77039356420217
 31
0.0
  0
ARC
  5
7C
330
2
100
AcDbEntity
  8
0
  6
CONTINUOUS
100
AcDbCircle
 10
163.7608828060961
 20
-54.68662077016419
 30
0.0
 40
2.509934125866666
100
AcDbArc
 50
269.9999999999993
 51
358.0873126931668
  0
LINE
  5
7D
330
2
100
AcDbEntity
  8
0
  6
CONTINUOUS
100
AcDbLine
 10
162.5371773512147
 20
-54.76592299146375
 30
0.0
 11
160.0590480946814
 21
-54.76528604533042
 31
0.0
  0
SPLINE
  5
7E
330
2
100
AcDbEntity
  8
0
  6
CONTINUOUS
100
AcDbSpline
210
0.0
220
0.0
230
1.0
 70
     8
 71
     3
 72
    10
 73
     6
 74
     4
 42
0.0000000001
 43
0.0000000001
 44
0.0000000001
 40
0.0
 40
0.0
 40
0.0
 40
0.0
 40
0.9547337400228022
 40
1.913684291380113
 40
2.874630754343174
 40
2.874630754343174
 40
2.874630754343174
 40
2.874630754343174
 10
156.813808086148
 20
-54.76520624799707
 30
0.0
 10
156.495563506159
 20
-54.76517445148895
 30
0.0
 10
155.8576687424028
 20
-54.76511071803578
 30
0.0
 10
154.8994584988595
 20
-54.76528355760423
 30
0.0
 10
154.2594928442911
 20
-54.76542640249927
 30
0.0
 10
153.9391773650813
 20
-54.76549789919708
 30
0.0
 11
156.813808086148
 21
-54.76520624799707
 31
0.0
 11
155.8590743474814
 21
-54.76515536053041
 31
0.0
 11
154.9001238056147
 21
-54.76529027573041
 31
0.0
 11
153.9391773650813
 21
-54.76549789919708
 31
0.0
  0
SPLINE
  5
7F
330
2
100
AcDbEntity
  8
0
  6
CONTINUOUS
100
AcDbSpline
210
0.0
220
0.0
230
1.0
 70
     8
 71
     3
 72
    10
 73
     6
 74
     4
 42
0.0000000001
 43
0.0000000001
 44
0.0000000001
 40
0.0
 40
0.0
 40
0.0
 40
0.0
 40
1.603271750530787
 40
3.191105116978776
 40
4.75773674044994
 40
4.75773674044994
 40
4.75773674044994
 40
4.75773674044994
 10
153.9391773650813
 20
-54.76549789919708
 30
0.0
 10
153.4047534482878
 20
-54.76549055009265
 30
0.0
 10
152.3410517427276
 20
-54.76547592265051
 30
0.0
 10
150.7551394959463
 20
-54.76546337132827
 30
0.0
 10
149.7036511659723
 20
-54.76546200141611
 30
0.0
 10
149.1814406248147
 20
-54.76546132106374
 30
0.0
 11
153.9391773650813
 21
-54.76549789919708
 31
0.0
 11
152.3359056146814
 21
-54.76547741919707
 31
0.0
 11
150.7480722482814
 21
-54.76546507679707
 31
0.0
 11
149.1814406248147
 21
-54.76546132106374
 31
0.0
  0
SPLINE
  5
80
330
2
100
AcDbEntity
  8
0
  6
CONTINUOUS
100
AcDbSpline
210
0.0
220
0.0
230
1.0
 70
     8
 71
     3
 72
    10
 73
     6
 74
     4
 42
0.0000000001
 43
0.0000000001
 44
0.0000000001
 40
0.0
 40
0.0
 40
0.0
 40
0.0
 40
0.6677888391137215
 40
1.340184033258251
 40
2.016396898044459
 40
2.016396898044459
 40
2.016396898044459
 40
2.016396898044459
 10
158.830204921348
 20
-54.76503154399708
 30
0.0
 10
158.6076086490782
 20
-54.76495570030704
 30
0.0
 10
158.1608806529128
 20
-54.76480348976316
 30
0.0
 10
157.4887483550642
 20
-54.76499185163211
 30
0.0
 10
157.0392123613891
 20
-54.76513464779853
 30
0.0
 10
156.813808086148
 20
-54.76520624799707
 30
0.0
 11
158.830204921348
 21
-54.76503154399708
 31
0.0
 11
158.1624161010814
 21
-54.76487288799708
 31
0.0
 11
157.490020918148
 21
-54.76499567519708
 31
0.0
 11
156.813808086148
 21
-54.76520624799707
 31
0.0
  0
SPLINE
  5
81
330
2
100
AcDbEntity
  8
0
  6
CONTINUOUS
100
AcDbSpline
210
0.0
220
0.0
230
1.0
 70
     8
 71
     3
 72
    10
 73
     6
 74
     4
 42
0.0000000001
 43
0.0000000001
 44
0.0000000001
 40
0.0
 40
0.0
 40
0.0
 40
0.0
 40
0.3292906160490088
 40
0.6600642858929801
 40
0.9922238779706086
 40
0.9922238779706086
 40
0.9922238779706086
 40
0.9922238779706086
 10
159.822428780548
 20
-54.76520178719708
 30
0.0
 10
159.712665246999
 20
-54.76516792784939
 30
0.0
 10
159.4926438286592
 20
-54.76510005665883
 30
0.0
 10
159.161902539273
 20
-54.76504453054717
 30
0.0
 10
158.940924785349
 20
-54.76503587887616
 30
0.0
 10
158.830204921348
 20
-54.76503154399708
 30
0.0
 11
159.822428780548
 21
-54.76520178719708
 31
0.0
 11
159.4931381778813
 21
-54.76510790773041
 31
0.0
 11
159.1623645128147
 21
-54.76505169013041
 31
0.0
 11
158.830204921348
 21
-54.76503154399708
 31
0.0
  0
SPLINE
  5
82
330
2
100
AcDbEntity
  8
0
  6
CONTINUOUS
100
AcDbSpline
210
0.0
220
0.0
230
1.0
 70
     8
 71
     3
 72
    10
 73
     6
 74
     4
 42
0.0000000001
 43
0.0000000001
 44
0.0000000001
 40
0.0
 40
0.0
 40
0.0
 40
0.0
 40
0.078780054254016
 40
0.1576535632562384
 40
0.2366193291388247
 40
0.2366193291388247
 40
0.2366193291388247
 40
0.2366193291388247
 10
160.0590480946814
 20
-54.76528604533041
 30
0.0
 10
160.0327880783386
 20
-54.76527648058658
 30
0.0
 10
159.9802368940722
 20
-54.76525733975247
 30
0.0
 10
159.9013637893616
 20
-54.76522924533925
 30
0.0
 10
159.8487507009164
 20
-54.76521094347695
 30
0.0
 10
159.822428780548
 20
-54.76520178719708
 30
0.0
 11
160.0590480946814
 21
-54.76528604533041
 31
0.0
 11
159.9802680456147
 21
-54.76525745653042
 31
0.0
 11
159.9013945416147
 21
-54.76522936586374
 31
0.0
 11
159.822428780548
 21
-54.76520178719708
 31
0.0
  0
SPLINE
  5
83
330
2
100
AcDbEntity
  8
0
  6
CONTINUOUS
100
AcDbSpline
210
0.0
220
0.0
230
1.0
 70
     8
 71
     3
 72
    13
 73
     9
 74
     7
 42
0.0000000001
 43
0.0000000001
 44
0.0000000001
 40
0.0
 40
0.0
 40
0.0
 40
0.0
 40
0.1838988009821047
 40
0.5557748406602246
 40
1.101076610845289
 40
1.797914064683119
 40
2.61724745267463
 40
3.525780883574461
 40
3.525780883574461
 40
3.525780883574461
 40
3.525780883574461
 10
166.0629192477481
 20
-54.76732559519708
 30
0.0
 10
166.0016262178949
 20
-54.76636796218213
 30
0.0
 10
165.8163877948149
 20
-54.76347382511626
 30
0.0
 10
165.449346655974
 20
-54.7649138899375
 30
0.0
 10
164.911355021309
 20
-54.7690897941746
 30
0.0
 10
164.2242066506136
 20
-54.7624617452522
 30
0.0
 10
163.4159687367757
 20
-54.76160390144385
 30
0.0
 10
162.8400188308543
 20
-54.76443458405122
 30
0.0
 10
162.5371773512147
 20
-54.76592299146375
 30
0.0
 11
166.0629192477481
 21
-54.76732559519708
 31
0.0
 11
165.8790371218814
 21
-54.76484914826374
 31
0.0
 11
165.5071610834814
 21
-54.76487998026374
 31
0.0
 11
164.9618647218814
 21
-54.76730868213041
 31
0.0
 11
164.265036242948
 21
-54.76377201439707
 31
0.0
 11
163.4457039880147
 21
-54.76240940533041
 31
0.0
 11
162.5371773512147
 21
-54.76592299146375
 31
0.0
  0
LINE
  5
84
330
2
100
AcDbEntity
  8
0
  6
CONTINUOUS
100
AcDbLine
 10
166.2694185214426
 20
-54.77039356420217
 30
0.0
 11
166.2462936019759
 21
-54.77038450073551
 31
0.0
  0
LINE
  5
85
330
2
100
AcDbEntity
  8
0
  6
CONTINUOUS
100
AcDbLine
 10
166.2462936019759
 20
-54.77038450073551
 30
0.0
 11
166.0614150899759
 21
-54.77055146180218
 31
0.0
  0
LINE
  5
86
330
2
100
AcDbEntity
  8
0
  6
CONTINUOUS
100
AcDbLine
 10
163.5114864200147
 20
-48.26999553816419
 30
0.0
 11
160.8616303666814
 21
-48.22374212909752
 31
0.0
  0
SPLINE
  5
87
330
2
100
AcDbEntity
  8
0
  6
CONTINUOUS
100
AcDbSpline
210
0.0
220
0.0
230
1.0
 70
     8
 71
     3
 72
     9
 73
     5
 74
     3
 42
0.0000000001
 43
0.0000000001
 44
0.0000000001
 40
0.0
 40
0.0
 40
0.0
 40
0.0
 40
0.2291218680949012
 40
0.8045587227243796
 40
0.8045587227243796
 40
0.8045587227243796
 40
0.8045587227243796
 10
160.8627572872147
 20
-48.15918093229752
 30
0.0
 10
160.9391196111264
 20
-48.1605138414193
 30
0.0
 10
161.2072650059833
 20
-48.16519433599385
 30
0.0
 10
161.4754104008184
 20
-48.1698748318178
 30
0.0
 10
161.667193471748
 20
-48.17322241816419
 30
0.0
 11
160.8627572872147
 21
-48.15918093229752
 31
0.0
 11
161.091844258948
 21
-48.16317965976419
 31
0.0
 11
161.667193471748
 21
-48.17322241816419
 31
0.0
  0
SPLINE
  5
88
330
2
100
AcDbEntity
  8
0
  6
CONTINUOUS
100
AcDbSpline
210
0.0
220
0.0
230
1.0
 70
     8
 71
     3
 72
    10
 73
     6
 74
     4
 42
0.0000000001
 43
0.0000000001
 44
0.0000000001
 40
0.0
 40
0.0
 40
0.0
 40
0.0
 40
0.2610097018336744
 40
0.5294089835439875
 40
0.7948392967838155
 40
0.7948392967838155
 40
0.7948392967838155
 40
0.7948392967838155
 10
161.6563486088147
 20
-48.23761398616419
 30
0.0
 10
161.5693586258803
 20
-48.23609557057845
 30
0.0
 10
161.3929158418756
 20
-48.23301575076256
 30
0.0
 10
161.1280097622469
 20
-48.22839179750779
 30
0.0
 10
160.9500936655273
 20
-48.22528626127525
 30
0.0
 10
160.8616303698814
 20
-48.22374212909752
 30
0.0
 11
161.6563486088147
 21
-48.23761398616419
 31
0.0
 11
161.3953786600147
 21
-48.23305873923086
 31
0.0
 11
161.1270202568147
 21
-48.22837452589752
 31
0.0
 11
160.8616303698814
 21
-48.22374212909752
 31
0.0
  0
SPLINE
  5
89
330
2
100
AcDbEntity
  8
0
  6
CONTINUOUS
100
AcDbSpline
210
0.0
220
0.0
230
1.0
 70
     8
 71
     3
 72
     9
 73
     5
 74
     3
 42
0.0000000001
 43
0.0000000001
 44
0.0000000001
 40
0.0
 40
0.0
 40
0.0
 40
0.0
 40
0.3642019742520044
 40
0.804558723790884
 40
0.804558723790884
 40
0.804558723790884
 40
0.804558723790884
 10
160.8616303666814
 20
-48.22374212909752
 30
0.0
 10
160.98301253486
 20
-48.22586086255983
 30
0.0
 10
161.2511579300665
 20
-48.23054135748025
 30
0.0
 10
161.5193033252604
 20
-48.23522185311507
 30
0.0
 10
161.6660665522814
 20
-48.23778361496419
 30
0.0
 11
160.8616303666814
 21
-48.22374212909752
 31
0.0
 11
161.2257768712147
 21
-48.23009832963085
 31
0.0
 11
161.6660665522814
 21
-48.23778361496419
 31
0.0
  0
LINE
  5
8A
330
2
100
AcDbEntity
  8
0
  6
CONTINUOUS
100
AcDbLine
 10
161.665055295748
 20
-48.29056398829752
 30
0.0
 11
160.799037382148
 21
-48.27379759469753
 31
0.0
  0
SPLINE
  5
8B
330
2
100
AcDbEntity
  8
0
  6
CONTINUOUS
100
AcDbSpline
210
0.0
220
0.0
230
1.0
 70
     8
 71
     3
 72
     9
 73
     5
 74
     3
 42
0.0000000001
 43
0.0000000001
 44
0.0000000001
 40
0.0
 40
0.0
 40
0.0
 40
0.0
 40
1.896492181565313
 40
3.159508508818892
 40
3.159508508818892
 40
3.159508508818892
 40
3.159508508818892
 10
154.4646004968147
 20
-48.04750068483086
 30
0.0
 10
155.0966682756528
 20
-48.05853347096821
 30
0.0
 10
156.1496773757173
 20
-48.07691381654294
 30
0.0
 10
157.2026864758341
 20
-48.09529415912367
 30
0.0
 10
157.6236277970814
 20
-48.10264171736418
 30
0.0
 11
154.4646004968147
 21
-48.04750068483086
 31
0.0
 11
156.360803833348
 21
-48.08059904216419
 31
0.0
 11
157.6236277970814
 21
-48.10264171736418
 31
0.0
  0
SPLINE
  5
8C
330
2
100
AcDbEntity
  8
0
  6
CONTINUOUS
100
AcDbSpline
 70
     0
 71
     3
 72
    10
 73
     6
 74
     4
 42
0.0000000001
 43
0.0000000001
 44
0.0000000001
 40
0.0
 40
0.0
 40
0.0
 40
0.0
 40
1.240115653225117
 40
2.576885851405537
 40
3.144361938355575
 40
3.144361938355575
 40
3.144361938355575
 40
3.144361938355575
 10
154.4633351976147
 20
-48.11205947096419
 30
0.0
 10
154.8766441234819
 20
-48.11927380515524
 30
0.0
 10
155.735475249883
 20
-48.13426475834249
 30
0.0
 10
156.7834362621393
 20
-48.15255698648485
 30
0.0
 10
157.4180883485476
 20
-48.16363487934625
 30
0.0
 10
157.6072182344147
 20
-48.16693615363085
 30
0.0
 11
154.4633351976147
 21
-48.11205947096419
 31
0.0
 11
155.7032619752147
 21
-48.13370247363085
 31
0.0
 11
157.0398285768147
 21
-48.15703233069752
 31
0.0
 11
157.6072182344147
 21
-48.16693615363085
 31
0.0
  0
LINE
  5
8D
330
2
100
AcDbEntity
  8
0
  6
CONTINUOUS
100
AcDbLine
 10
157.6063532466814
 20
-48.21649128003086
 30
0.0
 11
152.9866945810814
 21
-48.13368207149752
 31
0.0
  0
SPLINE
  5
8E
330
2
100
AcDbEntity
  8
0
  6
CONTINUOUS
100
AcDbSpline
210
0.0
220
0.0
230
1.0
 70
    24
 71
     3
 72
     8
 73
     4
 74
     2
 42
0.0000000001
 43
0.0000000001
 44
0.0000000001
 40
0.0
 40
0.0
 40
0.0
 40
0.0
 40
0.0357783226222792
 40
0.0357783226222792
 40
0.0357783226222792
 40
0.0357783226222792
 10
154.4288269192147
 20
-48.04691800536418
 30
0.0
 10
154.4407514450814
 20
-48.04711223185307
 30
0.0
 10
154.452675970948
 20
-48.04730645834196
 30
0.0
 10
154.4646004968147
 20
-48.04750068483086
 30
0.0
 11
154.4288269192147
 21
-48.04691800536418
 31
0.0
 11
154.4646004968147
 21
-48.04750068483086
 31
0.0
  0
SPLINE
  5
8F
330
2
100
AcDbEntity
  8
0
  6
CONTINUOUS
100
AcDbSpline
210
0.0
220
0.0
230
1.0
 70
     8
 71
     3
 72
     9
 73
     5
 74
     3
 42
0.0000000001
 43
0.0000000001
 44
0.0000000001
 40
0.0
 40
0.0
 40
0.0
 40
0.0
 40
0.0337476676405311
 40
0.0685105529743671
 40
0.0685105529743671
 40
0.0685105529743671
 40
0.0685105529743671
 10
154.3603222642814
 20
-48.04602168536419
 30
0.0
 10
154.3715707409073
 20
-48.0461518321088
 30
0.0
 10
154.3944060776176
 20
-48.04641604075087
 30
0.0
 10
154.4172405153036
 20
-48.04674903899122
 30
0.0
 10
154.4288269192147
 20
-48.04691800536418
 30
0.0
 11
154.3603222642814
 21
-48.04602168536419
 31
0.0
 11
154.3940674760147
 21
-48.04642881709752
 31
0.0
 11
154.4288269192147
 21
-48.04691800536418
 31
0.0
  0
SPLINE
  5
90
330
2
100
AcDbEntity
  8
0
  6
CONTINUOUS
100
AcDbSpline
210
0.0
220
0.0
230
1.0
 70
     8
 71
     3
 72
    10
 73
     6
 74
     4
 42
0.0000000001
 43
0.0000000001
 44
0.0000000001
 40
0.0
 40
0.0
 40
0.0
 40
0.0
 40
0.0332702021893532
 40
0.0666052244488441
 40
0.0999577427408847
 40
0.0999577427408847
 40
0.0999577427408847
 40
0.0999577427408847
 10
154.2603681618814
 20
-48.04518325336418
 30
0.0
 10
154.2714580268456
 20
-48.04525061836802
 30
0.0
 10
154.2936593630698
 20
-48.04538547962237
 30
0.0
 10
154.3269774814285
 20
-48.04566477040316
 30
0.0
 10
154.3492053927711
 20
-48.04590269361458
 30
0.0
 10
154.3603222642814
 20
-48.04602168643086
 30
0.0
 11
154.2603681618814
 21
-48.04518325336418
 31
0.0
 11
154.293637670148
 21
-48.04539813336418
 31
0.0
 11
154.3269715208147
 21
-48.04567761283085
 31
0.0
 11
154.3603222642814
 21
-48.04602168643086
 31
0.0
  0
SPLINE
  5
91
330
2
100
AcDbEntity
  8
0
  6
CONTINUOUS
100
AcDbSpline
210
0.0
220
0.0
230
1.0
 70
     8
 71
     3
 72
    10
 73
     6
 74
     4
 42
0.0000000001
 43
0.0000000001
 44
0.0000000001
 40
0.0
 40
0.0
 40
0.0
 40
0.0
 40
0.0330500447873847
 40
0.0661316702513957
 40
0.0992447031605906
 40
0.0992447031605906
 40
0.0992447031605906
 40
0.0992447031605906
 10
154.2602893960147
 20
-48.10904520429752
 30
0.0
 10
154.2713052060593
 20
-48.1091838077016
 30
0.0
 10
154.293347352208
 20
-48.10946114695101
 30
0.0
 10
154.3264258877841
 20
-48.10990957856763
 30
0.0
 10
154.3484884435681
 20
-48.11023030730651
 30
0.0
 10
154.3595249554814
 20
-48.11039074776418
 30
0.0
 11
154.2602893960147
 21
-48.10904520429752
 31
0.0
 11
154.2933367570814
 21
-48.10946637763085
 31
0.0
 11
154.3264153426814
 21
-48.10991483949752
 31
0.0
 11
154.3595249554814
 21
-48.11039074776418
 31
0.0
  0
SPLINE
  5
92
330
2
100
AcDbEntity
  8
0
  6
CONTINUOUS
100
AcDbSpline
210
0.0
220
0.0
230
1.0
 70
    24
 71
     3
 72
     8
 73
     4
 74
     2
 42
0.0000000001
 43
0.0000000001
 44
0.0000000001
 40
0.0
 40
0.0
 40
0.0
 40
0.0
 40
0.0356077918476923
 40
0.0356077918476923
 40
0.0356077918476923
 40
0.0356077918476923
 10
154.427732527748
 20
-48.11145555309752
 30
0.0
 10
154.4396000847258
 20
-48.11165684411975
 30
0.0
 10
154.4514676417036
 20
-48.11185813514197
 30
0.0
 10
154.4633351986814
 20
-48.11205942616418
 30
0.0
 11
154.427732527748
 21
-48.11145555309752
 31
0.0
 11
154.4633351986814
 21
-48.11205942616418
 31
0.0
  0
SPLINE
  5
93
330
2
100
AcDbEntity
  8
0
  6
CONTINUOUS
100
AcDbSpline
210
0.0
220
0.0
230
1.0
 70
     8
 71
     3
 72
     9
 73
     5
 74
     3
 42
0.0000000001
 43
0.0000000001
 44
0.0000000001
 40
0.0
 40
0.0
 40
0.0
 40
0.0
 40
0.0336078350324689
 40
0.0682158893560204
 40
0.0682158893560204
 40
0.0682158893560204
 40
0.0682158893560204
 10
154.3595249554814
 20
-48.11039074669752
 30
0.0
 10
154.3707263128194
 20
-48.11055846607763
 30
0.0
 10
154.393462396595
 20
-48.11089889641674
 30
0.0
 10
154.4161980298657
 20
-48.11126819591243
 30
0.0
 10
154.427732527748
 20
-48.11145555309752
 30
0.0
 11
154.3595249554814
 21
-48.11039074669752
 31
0.0
 11
154.393128918148
 21
-48.11090091203085
 31
0.0
 11
154.427732527748
 21
-48.11145555309752
 31
0.0
  0
SPLINE
  5
94
330
2
100
AcDbEntity
  8
0
  6
CONTINUOUS
100
AcDbSpline
210
0.0
220
0.0
230
1.0
 70
     8
 71
     3
 72
    20
 73
    16
 74
    14
 42
0.0000000001
 43
0.0000000001
 44
0.0000000001
 40
0.0
 40
0.0
 40
0.0
 40
0.0
 40
0.0444539530026828
 40
0.096838930699077
 40
0.1543386420318749
 40
0.2199149042476409
 40
0.2942921307155246
 40
0.3781329868079156
 40
0.4720944716082057
 40
0.5766660629926682
 40
0.6925198501133538
 40
0.8206620364126493
 40
0.9623801053414005
 40
1.11935210508567
 40
1.293262693989562
 40
1.293262693989562
 40
1.293262693989562
 40
1.293262693989562
 10
152.9872932370814
 20
-48.13481877549752
 30
0.0
 10
152.9947536355765
 20
-48.11982790778057
 30
0.0
 10
153.011005441413
 20
-48.08717165334417
 30
0.0
 10
153.0702515729282
 20
-48.10695995603301
 30
0.0
 10
153.1247833623688
 20
-48.08567967155863
 30
0.0
 10
153.1911817657071
 20
-48.08165432487424
 30
0.0
 10
153.2651670746606
 20
-48.07391919575067
 30
0.0
 10
153.3490819585235
 20
-48.06778987109373
 30
0.0
 10
153.4430081498561
 20
-48.06202855753876
 30
0.0
 10
153.5476906387702
 20
-48.05694674617932
 30
0.0
 10
153.6637953974605
 20
-48.05253275704408
 30
0.0
 10
153.7923188507944
 20
-48.04891827232443
 30
0.0
 10
153.9345731997238
 20
-48.04628260157897
 30
0.0
 10
154.0921029244248
 20
-48.04473915164675
 30
0.0
 10
154.2023976758812
 20
-48.04502992908487
 30
0.0
 10
154.2603681640147
 20
-48.04518276056419
 30
0.0
 11
152.9872932370814
 21
-48.13481877549752
 31
0.0
 11
153.014083238148
 21
-48.09934413976419
 31
0.0
 11
153.066463138948
 21
-48.10007344109752
 31
0.0
 11
153.1229577810814
 21
-48.08936960003086
 31
0.0
 11
153.1880477330814
 21
-48.08139813123085
 31
0.0
 11
153.262114086148
 21
-48.07460496109752
 31
0.0
 11
153.3457091762814
 21
-48.06819013016419
 31
0.0
 11
153.4394941554814
 21
-48.06243354243085
 31
0.0
 11
153.5439398024147
 21
-48.05730279576419
 31
0.0
 11
153.6597087346814
 21
-48.05286947736419
 31
0.0
 11
153.7877995090814
 21
-48.04923995629752
 31
0.0
 11
153.929492470148
 21
-48.04657240216418
 31
0.0
 11
154.086457593348
 21
-48.04510311576418
 31
0.0
 11
154.2603681640147
 21
-48.04518276056419
 31
0.0
  0
SPLINE
  5
95
330
2
100
AcDbEntity
  8
0
  6
CONTINUOUS
100
AcDbSpline
210
0.0
220
0.0
230
1.0
 70
     8
 71
     3
 72
    22
 73
    18
 74
    16
 42
0.0000000001
 43
0.0000000001
 44
0.0000000001
 40
0.0
 40
0.0
 40
0.0
 40
0.0
 40
0.0270606572198011
 40
0.0699999596375625
 40
0.1175012958069585
 40
0.1710091724207253
 40
0.2309150016899988
 40
0.2975553495245406
 40
0.3713486979229704
 40
0.4526839442600733
 40
0.5418660360618831
 40
0.639293565235688
 40
0.7455226272733961
 40
0.8613168779432452
 40
0.9876188632073652
 40
1.125394828973843
 40
1.275753746033292
 40
1.275753746033292
 40
1.275753746033292
 40
1.275753746033292
 10
152.9872932370814
 20
-48.13481877549752
 30
0.0
 10
152.9953632669134
 20
-48.13048092802145
 30
0.0
 10
153.0162386565216
 20
-48.11925987208875
 30
0.0
 10
153.0567134408747
 20
-48.12228057212394
 30
0.0
 10
153.1040593662198
 20
-48.11636083127108
 30
0.0
 10
153.157827852307
 20
-48.11508336773414
 30
0.0
 10
153.2177497278376
 20
-48.11256451738486
 30
0.0
 10
153.2845251201598
 20
-48.11090931746965
 30
0.0
 10
153.3584264669265
 20
-48.10932604386562
 30
0.0
 10
153.4398556790136
 20
-48.10807262315464
 30
0.0
 10
153.5291648052167
 20
-48.10707585027095
 30
0.0
 10
153.6267756441319
 20
-48.10638274109643
 30
0.0
 10
153.7332587960252
 20
-48.10601674585737
 30
0.0
 10
153.849367492173
 20
-48.10602170682717
 30
0.0
 10
153.9759909568588
 20
-48.10646777509155
 30
0.0
 10
154.1141338991146
 20
-48.10739556841554
 30
0.0
 10
154.2101728552922
 20
-48.10847939223706
 30
0.0
 10
154.2602893608147
 20
-48.10904496963085
 30
0.0
 11
152.9872932370814
 21
-48.13481877549752
 31
0.0
 11
153.011987074948
 21
-48.12375109549751
 31
0.0
 11
153.0548249032147
 21
-48.12080081389752
 31
0.0
 11
153.1022006664147
 21
-48.11734914776419
 31
0.0
 11
153.155656130948
 21
-48.11498141229751
 31
0.0
 11
153.2155229970814
 21
-48.11282115309752
 31
0.0
 11
153.2821385629481
 21
-48.11100391789752
 31
0.0
 11
153.3559155570814
 21
-48.10945040429752
 31
0.0
 11
153.4372406866814
 21
-48.10816759789751
 31
0.0
 11
153.5264171336147
 21
-48.10716419843085
 31
0.0
 11
153.623842121348
 21
-48.10646048963086
 31
0.0
 11
153.7300705256147
 21
-48.10608666029752
 31
0.0
 11
153.8458647762814
 21
-48.10608580376419
 31
0.0
 11
153.9721660200147
 21
-48.10651860056418
 31
0.0
 11
154.109938716548
 21
-48.10746772269752
 31
0.0
 11
154.2602893608147
 21
-48.10904496963085
 31
0.0
  0
LINE
  5
96
330
2
100
AcDbEntity
  8
0
  6
CONTINUOUS
100
AcDbLine
 10
158.4718632274814
 20
-48.18202858883086
 30
0.0
 11
157.6664337970814
 21
-48.16796976536419
 31
0.0
  0
SPLINE
  5
97
330
2
100
AcDbEntity
  8
0
  6
CONTINUOUS
100
AcDbSpline
210
0.0
220
0.0
230
1.0
 70
     8
 71
     3
 72
    10
 73
     6
 74
     4
 42
0.0000000001
 43
0.0000000001
 44
0.0000000001
 40
0.0
 40
0.0
 40
0.0
 40
0.0
 40
0.0054474793278266
 40
0.4371699980528702
 40
0.8055589596213527
 40
0.8055589596213527
 40
0.8055589596213527
 40
0.8055589596213527
 10
158.4709544872147
 20
-48.23214862403085
 30
0.0
 10
158.4691389565445
 20
-48.23211585125002
 30
0.0
 10
158.323439360126
 20
-48.22948577673859
 30
0.0
 10
158.0549635713617
 20
-48.22463241203762
 30
0.0
 10
157.7883036388998
 20
-48.21979385290632
 30
0.0
 10
157.6655275282814
 20
-48.21756607363085
 30
0.0
 11
158.4709544872147
 21
-48.23214862403085
 31
0.0
 11
158.4655078952147
 21
-48.23205030509752
 31
0.0
 11
158.033855929348
 21
-48.22424559256418
 31
0.0
 11
157.6655275282814
 21
-48.21756607363085
 31
0.0
  0
SPLINE
  5
98
330
2
100
AcDbEntity
  8
0
  6
CONTINUOUS
100
AcDbSpline
210
0.0
220
0.0
230
1.0
 70
    24
 71
     3
 72
     8
 73
     4
 74
     2
 42
0.0000000001
 43
0.0000000001
 44
0.0000000001
 40
0.0
 40
0.0
 40
0.0
 40
0.0
 40
0.8056905207015695
 40
0.8056905207015695
 40
0.8056905207015695
 40
0.8056905207015695
 10
157.667560716548
 20
-48.10340856856418
 30
0.0
 10
157.9360833199258
 20
-48.10809564803085
 30
0.0
 10
158.2046059233036
 20
-48.11278272749752
 30
0.0
 10
158.4731285266814
 20
-48.11746980696419
 30
0.0
 11
157.667560716548
 21
-48.10340856856418
 31
0.0
 11
158.4731285266814
 21
-48.11746980696419
 31
0.0
  0
SPLINE
  5
99
330
2
100
AcDbEntity
  8
0
  6
CONTINUOUS
100
AcDbSpline
210
0.0
220
0.0
230
1.0
 70
     8
 71
     3
 72
     9
 73
     5
 74
     3
 42
0.0000000001
 43
0.0000000001
 44
0.0000000001
 40
0.0
 40
0.0
 40
0.0
 40
0.0
 40
0.4219115839840368
 40
0.8055521198977462
 40
0.8055521198977462
 40
0.8055521198977462
 40
0.8055521198977462
 10
158.4718632274814
 20
-48.18202858883085
 30
0.0
 10
158.3312474525484
 20
-48.17957413121018
 30
0.0
 10
158.0627709757504
 20
-48.17488785661002
 30
0.0
 10
157.7942944989484
 20
-48.17020158223598
 30
0.0
 10
157.6664337970814
 20
-48.16796976536418
 30
0.0
 11
158.4718632274814
 21
-48.18202858883085
 31
0.0
 11
158.0500159026814
 21
-48.17466521603085
 31
0.0
 11
157.6664337970814
 21
-48.16796976536418
 31
0.0
  0
SPLINE
  5
9A
330
2
100
AcDbEntity
  8
0
  6
CONTINUOUS
100
AcDbSpline
210
0.0
220
0.0
230
1.0
 70
    24
 71
     3
 72
     8
 73
     4
 74
     2
 42
0.0000000001
 43
0.0000000001
 44
0.0000000001
 40
0.0
 40
0.0
 40
0.0
 40
0.0
 40
0.0250984307610925
 40
0.0250984307610925
 40
0.0250984307610925
 40
0.0250984307610925
 10
157.609110895748
 20
-48.19154480536418
 30
0.0
 10
157.6081916793925
 20
-48.19986029691974
 30
0.0
 10
157.6072724630369
 20
-48.20817578847529
 30
0.0
 10
157.6063532466814
 20
-48.21649128003085
 30
0.0
 11
157.609110895748
 21
-48.19154480536418
 31
0.0
 11
157.6063532466814
 21
-48.21649128003085
 31
0.0
  0
SPLINE
  5
9B
330
2
100
AcDbEntity
  8
0
  6
CONTINUOUS
100
AcDbSpline
210
0.0
220
0.0
230
1.0
 70
     8
 71
     3
 72
     9
 73
     5
 74
     3
 42
0.0000000001
 43
0.0000000001
 44
0.0000000001
 40
0.0
 40
0.0
 40
0.0
 40
0.0
 40
0.0098879061814667
 40
0.0287455048483693
 40
0.0287455048483693
 40
0.0287455048483693
 40
0.0287455048483693
 10
157.6225008690814
 20
-48.16720291309752
 30
0.0
 10
157.6197399663141
 20
-48.16917285702706
 30
0.0
 10
157.6117136417892
 20
-48.17489975529436
 30
0.0
 10
157.6101419533189
 20
-48.18495099843085
 30
0.0
 10
157.609110895748
 20
-48.19154480536418
 30
0.0
 11
157.6225008690814
 21
-48.16720291309752
 31
0.0
 11
157.6149818920147
 21
-48.17362441389752
 31
0.0
 11
157.609110895748
 21
-48.19154480536418
 31
0.0
  0
SPLINE
  5
9C
330
2
100
AcDbEntity
  8
0
  6
CONTINUOUS
100
AcDbSpline
210
0.0
220
0.0
230
1.0
 70
    24
 71
     3
 72
     8
 73
     4
 74
     2
 42
0.0000000001
 43
0.0000000001
 44
0.0000000001
 40
0.0
 40
0.0
 40
0.0
 40
0.0
 40
0.0152426989666612
 40
0.0152426989666612
 40
0.0152426989666612
 40
0.0152426989666612
 10
157.6215934813481
 20
-48.21676814083086
 30
0.0
 10
157.6165134198369
 20
-48.21667585674197
 30
0.0
 10
157.6114333583258
 20
-48.21658357265308
 30
0.0
 10
157.6063532968147
 20
-48.21649128856418
 30
0.0
 11
157.6215934813481
 21
-48.21676814083086
 31
0.0
 11
157.6063532968147
 21
-48.21649128856418
 31
0.0
  0
SPLINE
  5
9D
330
2
100
AcDbEntity
  8
0
  6
CONTINUOUS
100
AcDbSpline
210
0.0
220
0.0
230
1.0
 70
     8
 71
     3
 72
     9
 73
     5
 74
     3
 42
0.0000000001
 43
0.0000000001
 44
0.0000000001
 40
0.0
 40
0.0
 40
0.0
 40
0.0
 40
0.0219694030051055
 40
0.0286961252890879
 40
0.0286961252890879
 40
0.0286961252890879
 40
0.0286961252890879
 10
157.6502848744147
 20
-48.21728926509752
 30
0.0
 10
157.642962947554
 20
-48.21715628564466
 30
0.0
 10
157.6333991496436
 20
-48.2169825897532
 30
0.0
 10
157.6238353522715
 20
-48.21680886421827
 30
0.0
 10
157.6215934813481
 20
-48.21676814083086
 30
0.0
 11
157.6502848744147
 21
-48.21728926509752
 31
0.0
 11
157.628319094148
 21
-48.21689030936418
 31
0.0
 11
157.6215934813481
 21
-48.21676814083086
 31
0.0
  0
SPLINE
  5
9E
330
2
100
AcDbEntity
  8
0
  6
CONTINUOUS
100
AcDbSpline
210
0.0
220
0.0
230
1.0
 70
    24
 71
     3
 72
     8
 73
     4
 74
     2
 42
0.0000000001
 43
0.0000000001
 44
0.0000000001
 40
0.0
 40
0.0
 40
0.0
 40
0.0
 40
0.0251116141412617
 40
0.0251116141412617
 40
0.0251116141412617
 40
0.0251116141412617
 10
157.653040076548
 20
-48.19232925656418
 30
0.0
 10
157.6521216758369
 20
-48.20064925940863
 30
0.0
 10
157.6512032751258
 20
-48.20896926225308
 30
0.0
 10
157.6502848744147
 20
-48.21728926509752
 30
0.0
 11
157.653040076548
 21
-48.19232925656418
 31
0.0
 11
157.6502848744147
 21
-48.21728926509752
 31
0.0
  0
SPLINE
  5
9F
330
2
100
AcDbEntity
  8
0
  6
CONTINUOUS
100
AcDbSpline
210
0.0
220
0.0
230
1.0
 70
     8
 71
     3
 72
     9
 73
     5
 74
     3
 42
0.0000000001
 43
0.0000000001
 44
0.0000000001
 40
0.0
 40
0.0
 40
0.0
 40
0.0
 40
0.0098933579420616
 40
0.0287631700018371
 40
0.0287631700018371
 40
0.0287631700018371
 40
0.0287631700018371
 10
157.6664337970814
 20
-48.16796976536418
 30
0.0
 10
157.6636717988551
 20
-48.16994136111723
 30
0.0
 10
157.6556417826571
 20
-48.17567342339096
 30
0.0
 10
157.6540707427627
 20
-48.18573104607904
 30
0.0
 10
157.653040076548
 20
-48.19232925656418
 30
0.0
 11
157.6664337970814
 21
-48.16796976536418
 31
0.0
 11
157.6589119506814
 21
-48.17439630083086
 31
0.0
 11
157.653040076548
 21
-48.19232925656418
 31
0.0
  0
SPLINE
  5
A0
330
2
100
AcDbEntity
  8
0
  6
CONTINUOUS
100
AcDbSpline
210
0.0
220
0.0
230
1.0
 70
    24
 71
     3
 72
     8
 73
     4
 74
     2
 42
0.0000000001
 43
0.0000000001
 44
0.0000000001
 40
0.0
 40
0.0
 40
0.0
 40
0.0
 40
0.0152451670985618
 40
0.0152451670985618
 40
0.0152451670985618
 40
0.0152451670985618
 10
157.6655275282814
 20
-48.21756607363085
 30
0.0
 10
157.6604466436592
 20
-48.21747380411975
 30
0.0
 10
157.6553657590369
 20
-48.21738153460863
 30
0.0
 10
157.6502848744147
 20
-48.21728926509752
 30
0.0
 11
157.6655275282814
 21
-48.21756607363085
 31
0.0
 11
157.6502848744147
 21
-48.21728926509752
 31
0.0
  0
SPLINE
  5
A1
330
2
100
AcDbEntity
  8
0
  6
CONTINUOUS
100
AcDbSpline
210
0.0
220
0.0
230
1.0
 70
    24
 71
     3
 72
     8
 73
     4
 74
     2
 42
0.0000000001
 43
0.0000000001
 44
0.0000000001
 40
0.0
 40
0.0
 40
0.0
 40
0.0
 40
0.0439396116690604
 40
0.0439396116690604
 40
0.0439396116690604
 40
0.0439396116690604
 10
157.6236277970814
 20
-48.10264171736418
 30
0.0
 10
157.6382721035702
 20
-48.10289733443084
 30
0.0
 10
157.6529164100591
 20
-48.10315295149751
 30
0.0
 10
157.667560716548
 20
-48.10340856856418
 30
0.0
 11
157.6236277970814
 21
-48.10264171736418
 31
0.0
 11
157.667560716548
 21
-48.10340856856418
 31
0.0
  0
SPLINE
  5
A2
330
2
100
AcDbEntity
  8
0
  6
CONTINUOUS
100
AcDbSpline
210
0.0
220
0.0
230
1.0
 70
    24
 71
     3
 72
     8
 73
     4
 74
     2
 42
0.0000000001
 43
0.0000000001
 44
0.0000000001
 40
0.0
 40
0.0
 40
0.0
 40
0.0
 40
0.0152849124977083
 40
0.0152849124977083
 40
0.0152849124977083
 40
0.0152849124977083
 10
157.6225008690814
 20
-48.16720291309752
 30
0.0
 10
157.6174066742369
 20
-48.16711399363085
 30
0.0
 10
157.6123124793925
 20
-48.16702507416417
 30
0.0
 10
157.607218284548
 20
-48.16693615469752
 30
0.0
 11
157.6225008690814
 21
-48.16720291309752
 31
0.0
 11
157.607218284548
 21
-48.16693615469752
 31
0.0
  0
SPLINE
  5
A3
330
2
100
AcDbEntity
  8
0
  6
CONTINUOUS
100
AcDbSpline
210
0.0
220
0.0
230
1.0
 70
    24
 71
     3
 72
     8
 73
     4
 74
     2
 42
0.0000000001
 43
0.0000000001
 44
0.0000000001
 40
0.0
 40
0.0
 40
0.0
 40
0.0
 40
0.0146617082592267
 40
0.0146617082592267
 40
0.0146617082592267
 40
0.0146617082592267
 10
157.6371603517481
 20
-48.16745879576418
 30
0.0
 10
157.6322738600147
 20
-48.16737350154197
 30
0.0
 10
157.6273873682814
 20
-48.16728820731975
 30
0.0
 10
157.622500876548
 20
-48.16720291309752
 30
0.0
 11
157.6371603517481
 21
-48.16745879576418
 31
0.0
 11
157.622500876548
 21
-48.16720291309752
 31
0.0
  0
SPLINE
  5
A4
330
2
100
AcDbEntity
  8
0
  6
CONTINUOUS
100
AcDbSpline
210
0.0
220
0.0
230
1.0
 70
     8
 71
     3
 72
     9
 73
     5
 74
     3
 42
0.0000000001
 43
0.0000000001
 44
0.0000000001
 40
0.0
 40
0.0
 40
0.0
 40
0.0
 40
0.0146313846915039
 40
0.0292779044949539
 40
0.0292779044949539
 40
0.0292779044949539
 40
0.0292779044949539
 10
157.6664337970814
 20
-48.16796976536418
 30
0.0
 10
157.6615574116586
 20
-48.16788464788548
 30
0.0
 10
157.6517995965441
 20
-48.16771432488021
 30
0.0
 10
157.6420417814364
 20
-48.16754400148555
 30
0.0
 10
157.6371603517481
 20
-48.16745879576418
 30
0.0
 11
157.6664337970814
 21
-48.16796976536418
 31
0.0
 11
157.6518046408147
 21
-48.16771441283085
 31
0.0
 11
157.6371603517481
 21
-48.16745879576418
 31
0.0
  0
SPLINE
  5
A5
330
2
100
AcDbEntity
  8
0
  6
CONTINUOUS
100
AcDbSpline
210
0.0
220
0.0
230
1.0
 70
    24
 71
     3
 72
     8
 73
     4
 74
     2
 42
0.0000000001
 43
0.0000000001
 44
0.0000000001
 40
0.0
 40
0.0
 40
0.0
 40
0.0
 40
0.0439396127541806
 40
0.0439396127541806
 40
0.0439396127541806
 40
0.0439396127541806
 10
157.622500876548
 20
-48.16720291309752
 30
0.0
 10
157.6371451833925
 20
-48.16745853051974
 30
0.0
 10
157.6517894902369
 20
-48.16771414794197
 30
0.0
 10
157.6664337970814
 20
-48.16796976536418
 30
0.0
 11
157.622500876548
 21
-48.16720291309752
 31
0.0
 11
157.6664337970814
 21
-48.16796976536418
 31
0.0
  0
SPLINE
  5
A6
330
2
100
AcDbEntity
  8
0
  6
CONTINUOUS
100
AcDbSpline
210
0.0
220
0.0
230
1.0
 70
    24
 71
     3
 72
     8
 73
     4
 74
     2
 42
0.0000000001
 43
0.0000000001
 44
0.0000000001
 40
0.0
 40
0.0
 40
0.0
 40
0.0
 40
0.0152849701075562
 40
0.0152849701075562
 40
0.0152849701075562
 40
0.0152849701075562
 10
157.6072182344147
 20
-48.16693615363085
 30
0.0
 10
157.6123124484591
 20
-48.16702507345308
 30
0.0
 10
157.6174066625036
 20
-48.16711399327529
 30
0.0
 10
157.622500876548
 20
-48.16720291309752
 30
0.0
 11
157.6072182344147
 21
-48.16693615363085
 31
0.0
 11
157.622500876548
 21
-48.16720291309752
 31
0.0
  0
SPLINE
  5
A7
330
2
100
AcDbEntity
  8
0
  6
CONTINUOUS
100
AcDbSpline
210
0.0
220
0.0
230
1.0
 70
     8
 71
     3
 72
    11
 73
     7
 74
     5
 42
0.0000000001
 43
0.0000000001
 44
0.0000000001
 40
0.0
 40
0.0
 40
0.0
 40
0.0
 40
0.693265066522677
 40
1.305338456806321
 40
1.849050884223601
 40
2.32845542091594
 40
2.32845542091594
 40
2.32845542091594
 40
2.32845542091594
 10
160.799037382148
 20
-48.27379759469752
 30
0.0
 10
160.5679854363143
 20
-48.26969558625268
 30
0.0
 10
160.1329411726109
 20
-48.26197197571501
 30
0.0
 10
159.5166893096858
 20
-48.25095704770834
 30
0.0
 10
158.9717135789779
 20
-48.24117851540333
 30
0.0
 10
158.6307300247049
 20
-48.23502976143055
 30
0.0
 10
158.4709544872147
 20
-48.23214862403085
 30
0.0
 11
160.799037382148
 21
-48.27379759469752
 31
0.0
 11
160.105881807748
 21
-48.26147679363085
 31
0.0
 11
159.4939060946814
 21
-48.25054236589752
 31
0.0
 11
158.9502812200147
 21
-48.24078534936418
 31
0.0
 11
158.4709544872147
 21
-48.23214862403085
 31
0.0
  0
SPLINE
  5
A8
330
2
100
AcDbEntity
  8
0
  6
CONTINUOUS
100
AcDbSpline
210
0.0
220
0.0
230
1.0
 70
     8
 71
     3
 72
    13
 73
     9
 74
     7
 42
0.0000000001
 43
0.0000000001
 44
0.0000000001
 40
0.0
 40
0.0
 40
0.0
 40
0.0
 40
0.3145782104590399
 40
0.6731499063837795
 40
1.079394052404783
 40
1.536884901686754
 40
2.049102728274419
 40
2.389992768010944
 40
2.389992768010944
 40
2.389992768010944
 40
2.389992768010944
 10
158.4731285266814
 20
-48.11746980696419
 30
0.0
 10
158.5779719595683
 20
-48.11929985614364
 30
0.0
 10
158.8023210870231
 20
-48.1232158852673
 30
0.0
 10
159.1620643055389
 20
-48.12949522488047
 30
0.0
 10
159.569437814861
 20
-48.13660595654841
 30
0.0
 10
160.0280189007186
 20
-48.14461051991044
 30
0.0
 10
160.4648186024154
 20
-48.15223488675004
 30
0.0
 10
160.7491445803704
 20
-48.15719781513234
 30
0.0
 10
160.8627572872147
 20
-48.15918093229752
 30
0.0
 11
158.4731285266814
 21
-48.11746980696419
 31
0.0
 11
158.787658825348
 21
-48.12295995416419
 31
0.0
 11
159.1461759090814
 21
-48.12921789229752
 31
0.0
 11
159.552358182148
 21
-48.13630783043085
 31
0.0
 11
160.009779353348
 21
-48.14429214723085
 31
0.0
 11
160.5219191666814
 21
-48.15323158083085
 31
0.0
 11
160.8627572872147
 21
-48.15918093229752
 31
0.0
  0
SPLINE
  5
A9
330
2
100
AcDbEntity
  8
0
  6
CONTINUOUS
100
AcDbSpline
210
0.0
220
0.0
230
1.0
 70
     8
 71
     3
 72
    11
 73
     7
 74
     5
 42
0.0000000001
 43
0.0000000001
 44
0.0000000001
 40
0.0
 40
0.0
 40
0.0
 40
0.0
 40
0.6779451839359244
 40
1.290025553404403
 40
1.833744717545421
 40
2.318603456665088
 40
2.318603456665088
 40
2.318603456665088
 40
2.318603456665088
 10
160.7999299026814
 20
-48.22266514349752
 30
0.0
 10
160.5739825928158
 20
-48.2187212184546
 30
0.0
 10
160.144039567397
 20
-48.21121653488043
 30
0.0
 10
159.5328844242689
 20
-48.20054878296871
 30
0.0
 10
158.9860816267874
 20
-48.19100430304594
 30
0.0
 10
158.6432745448171
 20
-48.18502058406847
 30
0.0
 10
158.481679580548
 20
-48.18219993389752
 30
0.0
 11
160.7999299026814
 21
-48.22266514349752
 31
0.0
 11
160.1220879730814
 21
-48.21083336856418
 31
0.0
 11
159.5101008264147
 21
-48.20015109336419
 31
0.0
 11
158.966464473348
 21
-48.19066188483085
 31
0.0
 11
158.481679580548
 21
-48.18219993389752
 31
0.0
  0
SPLINE
  5
AA
330
2
100
AcDbEntity
  8
0
  6
CONTINUOUS
100
AcDbSpline
210
0.0
220
0.0
230
1.0
 70
     8
 71
     3
 72
    14
 73
    10
 74
     8
 42
0.0000000001
 43
0.0000000001
 44
0.0000000001
 40
0.0
 40
0.0
 40
0.0
 40
0.0
 40
0.277536760858113
 40
0.5894601381620579
 40
0.9384615018167247
 40
1.327014261086106
 40
1.757581079042284
 40
2.232540012791551
 40
2.390131167748263
 40
2.390131167748263
 40
2.390131167748263
 40
2.390131167748263
 10
158.4718632274814
 20
-48.18202858883085
 30
0.0
 10
158.5643613910369
 20
-48.18364315025468
 30
0.0
 10
158.7608181778805
 20
-48.18707231616774
 30
0.0
 10
159.0735910344109
 20
-48.19253178656124
 30
0.0
 10
159.423363587667
 20
-48.198637088292
 30
0.0
 10
159.8126779311296
 20
-48.20543259572613
 30
0.0
 10
160.2439717366334
 20
-48.21296085783431
 30
0.0
 10
160.5982900662282
 20
-48.21914550773023
 30
0.0
 10
160.8091079823255
 20
-48.2228253476031
 30
0.0
 10
160.8616303666814
 20
-48.22374212909752
 30
0.0
 11
158.4718632274814
 21
-48.18202858883085
 31
0.0
 11
158.749357718148
 21
-48.18687227309752
 31
0.0
 11
159.0612335880147
 21
-48.19231608643086
 31
0.0
 11
159.4101817970814
 21
-48.19840699949752
 31
0.0
 11
159.7986753778814
 21
-48.20518818029752
 31
0.0
 11
160.2291766184147
 21
-48.21270260803085
 31
0.0
 11
160.7040632136147
 21
-48.22099178456419
 31
0.0
 11
160.8616303666814
 21
-48.22374212909752
 31
0.0
  0
SPLINE
  5
AB
330
2
100
AcDbEntity
  8
0
  6
CONTINUOUS
100
AcDbSpline
210
0.0
220
0.0
230
1.0
 70
    24
 71
     3
 72
     8
 73
     4
 74
     2
 42
0.0000000001
 43
0.0000000001
 44
0.0000000001
 40
0.0
 40
0.0
 40
0.0
 40
0.0
 40
0.0153271151826458
 40
0.0153271151826458
 40
0.0153271151826458
 40
0.0153271151826458
 10
160.8152546834814
 20
-48.22293263789752
 30
0.0
 10
160.8101464232147
 20
-48.22284347309753
 30
0.0
 10
160.805038162948
 20
-48.22275430829752
 30
0.0
 10
160.7999299026814
 20
-48.22266514349752
 30
0.0
 11
160.8152546834814
 21
-48.22293263789752
 31
0.0
 11
160.7999299026814
 21
-48.22266514349752
 31
0.0
  0
SPLINE
  5
AC
330
2
100
AcDbEntity
  8
0
  6
CONTINUOUS
100
AcDbSpline
210
0.0
220
0.0
230
1.0
 70
    24
 71
     3
 72
     8
 73
     4
 74
     2
 42
0.0000000001
 43
0.0000000001
 44
0.0000000001
 40
0.0
 40
0.0
 40
0.0
 40
0.0
 40
0.0154457562012194
 40
0.0154457562012194
 40
0.0154457562012194
 40
0.0154457562012194
 10
160.8306980872147
 20
-48.22320220376418
 30
0.0
 10
160.8255502859702
 20
-48.22311234847529
 30
0.0
 10
160.8204024847258
 20
-48.2230224931864
 30
0.0
 10
160.8152546834814
 20
-48.22293263789752
 30
0.0
 11
160.8306980872147
 21
-48.22320220376418
 31
0.0
 11
160.8152546834814
 21
-48.22293263789752
 31
0.0
  0
SPLINE
  5
AD
330
2
100
AcDbEntity
  8
0
  6
CONTINUOUS
100
AcDbSpline
210
0.0
220
0.0
230
1.0
 70
     8
 71
     3
 72
     9
 73
     5
 74
     3
 42
0.0000000001
 43
0.0000000001
 44
0.0000000001
 40
0.0
 40
0.0
 40
0.0
 40
0.0
 40
0.0154760850828478
 40
0.030936991327045
 40
0.030936991327045
 40
0.030936991327045
 40
0.030936991327045
 10
160.8616303666814
 20
-48.22374212909752
 30
0.0
 10
160.8564724573475
 20
-48.22365209748428
 30
0.0
 10
160.846161697522
 20
-48.2234721225602
 30
0.0
 10
160.835850937703
 20
-48.22329214726201
 30
0.0
 10
160.8306980872147
 20
-48.22320220376418
 30
0.0
 11
160.8616303666814
 21
-48.22374212909752
 31
0.0
 11
160.8461566386814
 21
-48.22347203416419
 31
0.0
 11
160.8306980872147
 21
-48.22320220376418
 31
0.0
  0
SPLINE
  5
AE
330
2
100
AcDbEntity
  8
0
  6
CONTINUOUS
100
AcDbSpline
210
0.0
220
0.0
230
1.0
 70
    24
 71
     3
 72
     8
 73
     4
 74
     2
 42
0.0000000001
 43
0.0000000001
 44
0.0000000001
 40
0.0
 40
0.0
 40
0.0
 40
0.0
 40
0.0084314455734977
 40
0.0084314455734977
 40
0.0084314455734977
 40
0.0084314455734977
 10
158.4720755304147
 20
-48.17359981656418
 30
0.0
 10
158.4720047627703
 20
-48.17640940731974
 30
0.0
 10
158.4719339951258
 20
-48.17921899807529
 30
0.0
 10
158.4718632274814
 20
-48.18202858883085
 30
0.0
 11
158.4720755304147
 21
-48.17359981656418
 31
0.0
 11
158.4718632274814
 21
-48.18202858883085
 31
0.0
  0
SPLINE
  5
AF
330
2
100
AcDbEntity
  8
0
  6
CONTINUOUS
100
AcDbSpline
210
0.0
220
0.0
230
1.0
 70
     8
 71
     3
 72
     9
 73
     5
 74
     3
 42
0.0000000001
 43
0.0000000001
 44
0.0000000001
 40
0.0
 40
0.0
 40
0.0
 40
0.0
 40
0.0328072341971457
 40
0.0561398998599504
 40
0.0561398998599504
 40
0.0561398998599504
 40
0.0561398998599504
 10
158.4731285266814
 20
-48.11746980696419
 30
0.0
 10
158.4729345183612
 20
-48.12840383488957
 30
0.0
 10
158.4726025303734
 20
-48.14711419703434
 30
0.0
 10
158.4722302544224
 20
-48.16582379849684
 30
0.0
 10
158.4720755304147
 20
-48.17359981656418
 30
0.0
 11
158.4731285266814
 21
-48.11746980696419
 31
0.0
 11
158.4725327432147
 21
-48.15027163096419
 31
0.0
 11
158.4720755304147
 21
-48.17359981656418
 31
0.0
  0
SPLINE
  5
B0
330
2
100
AcDbEntity
  8
0
  6
CONTINUOUS
100
AcDbSpline
210
0.0
220
0.0
230
1.0
 70
     8
 71
     3
 72
    10
 73
     6
 74
     4
 42
0.0000000001
 43
0.0000000001
 44
0.0000000001
 40
0.0
 40
0.0
 40
0.0
 40
0.0
 40
0.1520342696528021
 40
0.3264028320169949
 40
0.5055807051749108
 40
0.5055807051749108
 40
0.5055807051749108
 40
0.5055807051749108
 10
167.8301828413481
 20
-48.38147637869752
 30
0.0
 10
167.7795051879219
 20
-48.38126496365374
 30
0.0
 10
167.6707051809497
 20
-48.38081107605868
 30
0.0
 10
167.5021785827078
 20
-48.38041697409686
 30
0.0
 10
167.3843297531255
 20
-48.38038812415749
 30
0.0
 10
167.3246037864147
 20
-48.38037350296418
 30
0.0
 11
167.8301828413481
 21
-48.38147637869752
 31
0.0
 11
167.6781497202814
 21
-48.38088540696419
 31
0.0
 11
167.5037816274814
 21
-48.38048074136419
 31
0.0
 11
167.3246037864147
 21
-48.38037350296418
 31
0.0
  0
SPLINE
  5
B1
330
2
100
AcDbEntity
  8
0
  6
CONTINUOUS
100
AcDbSpline
210
0.0
220
0.0
230
1.0
 70
     8
 71
     3
 72
     9
 73
     5
 74
     3
 42
0.0000000001
 43
0.0000000001
 44
0.0000000001
 40
0.0
 40
0.0
 40
0.0
 40
0.0
 40
0.0791027013486011
 40
0.0941726034832994
 40
0.0941726034832994
 40
0.0941726034832994
 40
0.0941726034832994
 10
167.789529638148
 20
-48.29902644909751
 30
0.0
 10
167.8158914193203
 20
-48.29957879968114
 30
0.0
 10
167.8472753989206
 20
-48.30023637889915
 30
0.0
 10
167.8786594487486
 20
-48.30089059584208
 30
0.0
 10
167.8836816584147
 20
-48.30099528643085
 30
0.0
 11
167.789529638148
 21
-48.29902644909751
 31
0.0
 11
167.8686150312147
 21
-48.30068112856419
 31
0.0
 11
167.8836816584147
 21
-48.30099528643085
 31
0.0
  0
SPLINE
  5
B2
330
2
100
AcDbEntity
  8
0
  6
CONTINUOUS
100
AcDbSpline
210
0.0
220
0.0
230
1.0
 70
    24
 71
     3
 72
     8
 73
     4
 74
     2
 42
0.0000000001
 43
0.0000000001
 44
0.0000000001
 40
0.0
 40
0.0
 40
0.0
 40
0.0
 40
0.0781560678004826
 40
0.0781560678004826
 40
0.0781560678004826
 40
0.0781560678004826
 10
167.7381344946814
 20
-48.34377195523085
 30
0.0
 10
167.7641825494369
 20
-48.34422662545307
 30
0.0
 10
167.7902306041925
 20
-48.3446812956753
 30
0.0
 10
167.816278658948
 20
-48.34513596589752
 30
0.0
 11
167.7381344946814
 21
-48.34377195523085
 31
0.0
 11
167.816278658948
 21
-48.34513596589752
 31
0.0
  0
SPLINE
  5
B3
330
2
100
AcDbEntity
  8
0
  6
CONTINUOUS
100
AcDbSpline
210
0.0
220
0.0
230
1.0
 70
     8
 71
     3
 72
    15
 73
    11
 74
     9
 42
0.0000000001
 43
0.0000000001
 44
0.0000000001
 40
0.0
 40
0.0
 40
0.0
 40
0.0
 40
0.2493511657270572
 40
0.5278798330701508
 40
0.8380771428629428
 40
1.183477533825985
 40
1.566844621812912
 40
1.991741090633671
 40
2.462584933980479
 40
2.6614985366069
 40
2.6614985366069
 40
2.6614985366069
 40
2.6614985366069
 10
167.0322572648147
 20
-48.38096298563085
 30
0.0
 10
166.9491514544162
 20
-48.37959581695814
 30
0.0
 10
166.773215315548
 20
-48.37670150215267
 30
0.0
 10
166.4938940754518
 20
-48.3721055997379
 30
0.0
 10
166.1825607721493
 20
-48.36698223417188
 30
0.0
 10
165.8362860766623
 20
-48.36128282251007
 30
0.0
 10
165.4517835272494
 20
-48.35495291249935
 30
0.0
 10
165.0254721866881
 20
-48.34793302553543
 30
0.0
 10
164.6606370330534
 20
-48.34192387290374
 30
0.0
 10
164.4374148430374
 20
-48.33824629222511
 30
0.0
 10
164.371119305348
 20
-48.33715407469751
 30
0.0
 11
167.0322572648147
 21
-48.38096298563085
 31
0.0
 11
166.7829398354814
 21
-48.37686136643085
 31
0.0
 11
166.5044488626814
 21
-48.37227916163085
 31
0.0
 11
166.1942935464147
 21
-48.36717516376419
 31
0.0
 11
165.8489399314814
 21
-48.36149091096419
 31
0.0
 11
165.4656247826814
 21
-48.35518053443085
 31
0.0
 11
165.040785906948
 21
-48.34818490136418
 31
0.0
 11
164.5700059197481
 21
-48.34043064643085
 31
0.0
 11
164.371119305348
 21
-48.33715407469751
 31
0.0
  0
SPLINE
  5
B4
330
2
100
AcDbEntity
  8
0
  6
CONTINUOUS
100
AcDbSpline
210
0.0
220
0.0
230
1.0
 70
     8
 71
     3
 72
    14
 73
    10
 74
     8
 42
0.0000000001
 43
0.0000000001
 44
0.0000000001
 40
0.0
 40
0.0
 40
0.0
 40
0.0
 40
0.4165996696299319
 40
0.8735698917283036
 40
1.289776518128567
 40
1.625941504959099
 40
1.926813655532716
 40
2.231839633441112
 40
2.510332773362304
 40
2.510332773362304
 40
2.510332773362304
 40
2.510332773362304
 10
164.382857174148
 20
-48.22474069336418
 30
0.0
 10
164.5216887181878
 20
-48.22785888945812
 30
0.0
 10
164.8128052642068
 20
-48.23439745015018
 30
0.0
 10
165.2426254570819
 20
-48.24391303691011
 30
0.0
 10
165.6456410262134
 20
-48.25281831553951
 30
0.0
 10
165.9966380838275
 20
-48.2605068957546
 30
0.0
 10
166.3105845373153
 20
-48.26735062806128
 30
0.0
 10
166.6053118146757
 20
-48.27376598956535
 30
0.0
 10
166.7997730551981
 20
-48.27795587474863
 30
0.0
 10
166.8925825618814
 20
-48.27995555949751
 30
0.0
 11
164.382857174148
 21
-48.22474069336418
 31
0.0
 11
164.799352281348
 21
-48.23407398936418
 31
0.0
 11
165.256210066948
 21
-48.24421043949752
 31
0.0
 11
165.6723153853481
 21
-48.25339302403085
 31
0.0
 11
166.0083996776147
 21
-48.26075827096419
 31
0.0
 11
166.3092002920147
 21
-48.26731886296419
 31
0.0
 11
166.6141542536147
 21
-48.27394672109752
 31
0.0
 11
166.8925825618814
 21
-48.27995555949751
 31
0.0
  0
SPLINE
  5
B5
330
2
100
AcDbEntity
  8
0
  6
CONTINUOUS
100
AcDbSpline
210
0.0
220
0.0
230
1.0
 70
     8
 71
     3
 72
    15
 73
    11
 74
     9
 42
0.0000000001
 43
0.0000000001
 44
0.0000000001
 40
0.0
 40
0.0
 40
0.0
 40
0.0
 40
0.4118035068679872
 40
0.8632047769339401
 40
1.274263904834143
 40
1.606505028372512
 40
1.903869330662777
 40
2.205270441897437
 40
2.480453563225322
 40
2.666307480339721
 40
2.666307480339721
 40
2.666307480339721
 40
2.666307480339721
 10
164.3719685650814
 20
-48.28501530989752
 30
0.0
 10
164.509215494148
 20
-48.28741096394584
 30
0.0
 10
164.7969065963702
 20
-48.29243263079401
 30
0.0
 10
165.2215965391285
 20
-48.29984562121349
 30
0.0
 10
165.619769726683
 20
-48.30679576029383
 30
0.0
 10
165.9666050785018
 20
-48.31284979426607
 30
0.0
 10
166.2768933252487
 20
-48.31826589609817
 30
0.0
 10
166.5681651346957
 20
-48.32335006285341
 30
0.0
 10
166.8222724768968
 20
-48.32778552397794
 30
0.0
 10
166.9759280836583
 20
-48.33046759225728
 30
0.0
 10
167.0378699538814
 20
-48.33154879149752
 30
0.0
 11
164.3719685650814
 21
-48.28501530989752
 31
0.0
 11
164.7837093522814
 21
-48.29220227203085
 31
0.0
 11
165.235041871748
 21
-48.30008031043085
 31
0.0
 11
165.646038393348
 21
-48.30725428163085
 31
0.0
 11
165.978228914948
 21
-48.31305268909752
 31
0.0
 11
166.2755479272147
 21
-48.31824241176419
 31
0.0
 11
166.5769031336147
 21
-48.32350258563085
 31
0.0
 11
166.8520443432147
 21
-48.32830519363085
 31
0.0
 11
167.0378699538814
 21
-48.33154879149752
 31
0.0
  0
SPLINE
  5
B6
330
2
100
AcDbEntity
  8
0
  6
CONTINUOUS
100
AcDbSpline
210
0.0
220
0.0
230
1.0
 70
    24
 71
     3
 72
     8
 73
     4
 74
     2
 42
0.0000000001
 43
0.0000000001
 44
0.0000000001
 40
0.0
 40
0.0
 40
0.0
 40
0.0
 40
0.0561135276984431
 40
0.0561135276984431
 40
0.0561135276984431
 40
0.0561135276984431
 10
161.7899658866814
 20
-48.23994628483085
 30
0.0
 10
161.7712642262369
 20
-48.2396198460753
 30
0.0
 10
161.7525625657925
 20
-48.23929340731973
 30
0.0
 10
161.733860905348
 20
-48.23896696856419
 30
0.0
 11
161.7899658866814
 21
-48.23994628483085
 31
0.0
 11
161.733860905348
 21
-48.23896696856419
 31
0.0
  0
SPLINE
  5
B7
330
2
100
AcDbEntity
  8
0
  6
CONTINUOUS
100
AcDbSpline
210
0.0
220
0.0
230
1.0
 70
    24
 71
     3
 72
     8
 73
     4
 74
     2
 42
0.0000000001
 43
0.0000000001
 44
0.0000000001
 40
0.0
 40
0.0
 40
0.0
 40
0.0
 40
0.1376062530370145
 40
0.1376062530370145
 40
0.1376062530370145
 40
0.1376062530370145
 10
161.6660665522814
 20
-48.23778361496419
 30
0.0
 10
161.7119283172591
 20
-48.23858413514196
 30
0.0
 10
161.757790082237
 20
-48.23938465531974
 30
0.0
 10
161.8036518472147
 20
-48.24018517549752
 30
0.0
 11
161.6660665522814
 21
-48.23778361496419
 31
0.0
 11
161.8036518472147
 21
-48.24018517549752
 31
0.0
  0
SPLINE
  5
B8
330
2
100
AcDbEntity
  8
0
  6
CONTINUOUS
100
AcDbSpline
210
0.0
220
0.0
230
1.0
 70
    24
 71
     3
 72
     8
 73
     4
 74
     2
 42
0.0000000001
 43
0.0000000001
 44
0.0000000001
 40
0.0
 40
0.0
 40
0.0
 40
0.0
 40
0.7261449431320841
 40
0.7261449431320841
 40
0.7261449431320841
 40
0.7261449431320841
 10
161.7291471912147
 20
-48.17430382403085
 30
0.0
 10
161.9711586404591
 20
-48.17852814971974
 30
0.0
 10
162.2131700897036
 20
-48.18275247540864
 30
0.0
 10
162.455181538948
 20
-48.18697680109752
 30
0.0
 11
161.7291471912147
 21
-48.17430382403085
 31
0.0
 11
162.455181538948
 21
-48.18697680109752
 31
0.0
  0
LINE
  5
B9
330
2
100
AcDbEntity
  8
0
  6
CONTINUOUS
100
AcDbLine
 10
161.8362042482814
 20
-48.29384315416419
 30
0.0
 11
161.665055295748
 21
-48.29056398829752
 31
0.0
  0
SPLINE
  5
BA
330
2
100
AcDbEntity
  8
0
  6
CONTINUOUS
100
AcDbSpline
210
0.0
220
0.0
230
1.0
 70
    24
 71
     3
 72
     8
 73
     4
 74
     2
 42
0.0000000001
 43
0.0000000001
 44
0.0000000001
 40
0.0
 40
0.0
 40
0.0
 40
0.0
 40
0.0557082019614688
 40
0.0557082019614688
 40
0.0557082019614688
 40
0.0557082019614688
 10
161.8456656040147
 20
-48.24091852696419
 30
0.0
 10
161.8270990315703
 20
-48.24059444625308
 30
0.0
 10
161.8085324591258
 20
-48.24027036554197
 30
0.0
 10
161.7899658866814
 20
-48.23994628483085
 30
0.0
 11
161.8456656040147
 21
-48.24091852696419
 31
0.0
 11
161.7899658866814
 21
-48.23994628483085
 31
0.0
  0
SPLINE
  5
BB
330
2
100
AcDbEntity
  8
0
  6
CONTINUOUS
100
AcDbSpline
210
0.0
220
0.0
230
1.0
 70
    24
 71
     3
 72
     8
 73
     4
 74
     2
 42
0.0000000001
 43
0.0000000001
 44
0.0000000001
 40
0.0
 40
0.0
 40
0.0
 40
0.0
 40
0.0601407863930914
 40
0.0601407863930914
 40
0.0601407863930914
 40
0.0601407863930914
 10
162.455181538948
 20
-48.18697680109752
 30
0.0
 10
162.4752254145036
 20
-48.18732666811975
 30
0.0
 10
162.4952692900591
 20
-48.18767653514196
 30
0.0
 10
162.5153131656147
 20
-48.18802640216419
 30
0.0
 11
162.455181538948
 21
-48.18697680109752
 31
0.0
 11
162.5153131656147
 21
-48.18802640216419
 31
0.0
  0
SPLINE
  5
BC
330
2
100
AcDbEntity
  8
0
  6
CONTINUOUS
100
AcDbSpline
210
0.0
220
0.0
230
1.0
 70
    24
 71
     3
 72
     9
 73
     5
 74
     3
 42
0.0000000001
 43
0.0000000001
 44
0.0000000001
 40
0.0
 40
0.0
 40
0.0
 40
0.0
 40
0.4159398787280532
 40
0.9177388480825541
 40
0.9177388480825541
 40
0.9177388480825541
 40
0.9177388480825541
 10
162.5153131656147
 20
-48.18802640216419
 30
0.0
 10
162.6539386753038
 20
-48.19044611948398
 30
0.0
 10
162.959805032639
 20
-48.19578503671533
 30
0.0
 10
163.2656713899706
 20
-48.20112395414447
 30
0.0
 10
163.4329122376147
 20
-48.20404315416419
 30
0.0
 11
162.5153131656147
 21
-48.18802640216419
 31
0.0
 11
162.9311896946814
 21
-48.19528555416418
 31
0.0
 11
163.4329122376147
 21
-48.20404315416419
 31
0.0
  0
SPLINE
  5
BD
330
2
100
AcDbEntity
  8
0
  6
CONTINUOUS
100
AcDbSpline
210
0.0
220
0.0
230
1.0
 70
    24
 71
     3
 72
     8
 73
     4
 74
     2
 42
0.0000000001
 43
0.0000000001
 44
0.0000000001
 40
0.0
 40
0.0
 40
0.0
 40
0.0
 40
0.0214388948433647
 40
0.0214388948433647
 40
0.0214388948433647
 40
0.0214388948433647
 10
162.4530322632147
 20
-48.30552339843086
 30
0.0
 10
162.4458869430369
 20
-48.30540516696419
 30
0.0
 10
162.4387416228591
 20
-48.30528693549752
 30
0.0
 10
162.4315963026814
 20
-48.30516870403085
 30
0.0
 11
162.4530322632147
 21
-48.30552339843086
 31
0.0
 11
162.4315963026814
 21
-48.30516870403085
 31
0.0
  0
SPLINE
  5
BE
330
2
100
AcDbEntity
  8
0
  6
CONTINUOUS
100
AcDbSpline
210
0.0
220
0.0
230
1.0
 70
     8
 71
     3
 72
     9
 73
     5
 74
     3
 42
0.0000000001
 43
0.0000000001
 44
0.0000000001
 40
0.0
 40
0.0
 40
0.0
 40
0.0
 40
0.0385141651094935
 40
0.0555894549726247
 40
0.0555894549726247
 40
0.0555894549726247
 40
0.0555894549726247
 10
162.5086141149481
 20
-48.30644277976419
 30
0.0
 10
162.4957778152722
 20
-48.30623048809606
 30
0.0
 10
162.4772505305493
 20
-48.30592407672526
 30
0.0
 10
162.4587232476894
 20
-48.30561755272857
 30
0.0
 10
162.4530322632147
 20
-48.30552339843086
 30
0.0
 11
162.5086141149481
 21
-48.30644277976419
 31
0.0
 11
162.4701052168147
 21
-48.30580585069752
 31
0.0
 11
162.4530322632147
 21
-48.30552339843086
 31
0.0
  0
SPLINE
  5
BF
330
2
100
AcDbEntity
  8
0
  6
CONTINUOUS
100
AcDbSpline
210
0.0
220
0.0
230
1.0
 70
    24
 71
     3
 72
     8
 73
     4
 74
     2
 42
0.0000000001
 43
0.0000000001
 44
0.0000000001
 40
0.0
 40
0.0
 40
0.0
 40
0.0
 40
0.1072272553617897
 40
0.1072272553617897
 40
0.1072272553617897
 40
0.1072272553617897
 10
162.6158267250814
 20
-48.30821493123085
 30
0.0
 10
162.5800891883703
 20
-48.30762421407531
 30
0.0
 10
162.5443516516592
 20
-48.30703349691975
 30
0.0
 10
162.5086141149481
 20
-48.30644277976419
 30
0.0
 11
162.6158267250814
 21
-48.30821493123085
 31
0.0
 11
162.5086141149481
 21
-48.30644277976419
 31
0.0
  0
SPLINE
  5
C0
330
2
100
AcDbEntity
  8
0
  6
CONTINUOUS
100
AcDbSpline
210
0.0
220
0.0
230
1.0
 70
    24
 71
     3
 72
     8
 73
     4
 74
     2
 42
0.0000000001
 43
0.0000000001
 44
0.0000000001
 40
0.0
 40
0.0
 40
0.0
 40
0.0
 40
0.1076761802010577
 40
0.1076761802010577
 40
0.1076761802010577
 40
0.1076761802010577
 10
162.723488226948
 20
-48.30999279469752
 30
0.0
 10
162.6876010596591
 20
-48.30940017354197
 30
0.0
 10
162.6517138923703
 20
-48.30880755238641
 30
0.0
 10
162.6158267250814
 20
-48.30821493123085
 30
0.0
 11
162.723488226948
 21
-48.30999279469752
 31
0.0
 11
162.6158267250814
 21
-48.30821493123085
 31
0.0
  0
SPLINE
  5
C1
330
2
100
AcDbEntity
  8
0
  6
CONTINUOUS
100
AcDbSpline
210
0.0
220
0.0
230
1.0
 70
    24
 71
     3
 72
     8
 73
     4
 74
     2
 42
0.0000000001
 43
0.0000000001
 44
0.0000000001
 40
0.0
 40
0.0
 40
0.0
 40
0.0
 40
0.1081260722614521
 40
0.1081260722614521
 40
0.1081260722614521
 40
0.1081260722614521
 10
162.8315995880147
 20
-48.31177636163086
 30
0.0
 10
162.7955624676591
 20
-48.31118183931974
 30
0.0
 10
162.7595253473036
 20
-48.31058731700863
 30
0.0
 10
162.723488226948
 20
-48.30999279469752
 30
0.0
 11
162.8315995880147
 21
-48.31177636163086
 31
0.0
 11
162.723488226948
 21
-48.30999279469752
 31
0.0
  0
SPLINE
  5
C2
330
2
100
AcDbEntity
  8
0
  6
CONTINUOUS
100
AcDbSpline
210
0.0
220
0.0
230
1.0
 70
    24
 71
     3
 72
     8
 73
     4
 74
     2
 42
0.0000000001
 43
0.0000000001
 44
0.0000000001
 40
0.0
 40
0.0
 40
0.0
 40
0.0
 40
0.044478684910632
 40
0.044478684910632
 40
0.044478684910632
 40
0.044478684910632
 10
162.8760722248147
 20
-48.31250983789752
 30
0.0
 10
162.861248012548
 20
-48.31226534580864
 30
0.0
 10
162.8464238002814
 20
-48.31202085371975
 30
0.0
 10
162.8315995880147
 20
-48.31177636163086
 30
0.0
 11
162.8760722248147
 21
-48.31250983789752
 31
0.0
 11
162.8315995880147
 21
-48.31177636163086
 31
0.0
  0
SPLINE
  5
C3
330
2
100
AcDbEntity
  8
0
  6
CONTINUOUS
100
AcDbSpline
210
0.0
220
0.0
230
1.0
 70
    24
 71
     3
 72
     8
 73
     4
 74
     2
 42
0.0000000001
 43
0.0000000001
 44
0.0000000001
 40
0.0
 40
0.0
 40
0.0
 40
0.0
 40
0.1072283228548642
 40
0.1072283228548642
 40
0.1072283228548642
 40
0.1072283228548642
 10
162.621398236548
 20
-48.25445899096418
 30
0.0
 10
162.5856609060591
 20
-48.25383519363086
 30
0.0
 10
162.5499235755702
 20
-48.25321139629752
 30
0.0
 10
162.5141862450814
 20
-48.25258759896419
 30
0.0
 11
162.621398236548
 21
-48.25445899096418
 31
0.0
 11
162.5141862450814
 21
-48.25258759896419
 31
0.0
  0
SPLINE
  5
C4
330
2
100
AcDbEntity
  8
0
  6
CONTINUOUS
100
AcDbSpline
210
0.0
220
0.0
230
1.0
 70
    24
 71
     3
 72
     8
 73
     4
 74
     2
 42
0.0000000001
 43
0.0000000001
 44
0.0000000001
 40
0.0
 40
0.0
 40
0.0
 40
0.0
 40
0.1076772274953701
 40
0.1076772274953701
 40
0.1076772274953701
 40
0.1076772274953701
 10
162.7290590642814
 20
-48.25633821763085
 30
0.0
 10
162.6931721217036
 20
-48.25571180874196
 30
0.0
 10
162.6572851791258
 20
-48.25508539985307
 30
0.0
 10
162.621398236548
 20
-48.25445899096418
 30
0.0
 11
162.7290590642814
 21
-48.25633821763085
 31
0.0
 11
162.621398236548
 21
-48.25445899096418
 31
0.0
  0
SPLINE
  5
C5
330
2
100
AcDbEntity
  8
0
  6
CONTINUOUS
100
AcDbSpline
210
0.0
220
0.0
230
1.0
 70
    24
 71
     3
 72
     8
 73
     4
 74
     2
 42
0.0000000001
 43
0.0000000001
 44
0.0000000001
 40
0.0
 40
0.0
 40
0.0
 40
0.0
 40
0.1081271008195747
 40
0.1081271008195747
 40
0.1081271008195747
 40
0.1081271008195747
 10
162.8371696968147
 20
-48.25822529603085
 30
0.0
 10
162.8011328193036
 20
-48.25759626989752
 30
0.0
 10
162.7650959417925
 20
-48.25696724376419
 30
0.0
 10
162.7290590642814
 20
-48.25633821763085
 30
0.0
 11
162.8371696968147
 21
-48.25822529603085
 31
0.0
 11
162.7290590642814
 21
-48.25633821763085
 31
0.0
  0
SPLINE
  5
C6
330
2
100
AcDbEntity
  8
0
  6
CONTINUOUS
100
AcDbSpline
210
0.0
220
0.0
230
1.0
 70
    24
 71
     3
 72
     8
 73
     4
 74
     2
 42
0.0000000001
 43
0.0000000001
 44
0.0000000001
 40
0.0
 40
0.0
 40
0.0
 40
0.0
 40
0.0397825966790341
 40
0.0397825966790341
 40
0.0397825966790341
 40
0.0397825966790341
 10
162.8769462344147
 20
-48.25891959789752
 30
0.0
 10
162.863687388548
 20
-48.25868816394197
 30
0.0
 10
162.8504285426813
 20
-48.2584567299864
 30
0.0
 10
162.8371696968147
 20
-48.25822529603085
 30
0.0
 11
162.8769462344147
 21
-48.25891959789752
 31
0.0
 11
162.8371696968147
 21
-48.25822529603085
 31
0.0
  0
SPLINE
  5
C7
330
2
100
AcDbEntity
  8
0
  6
CONTINUOUS
100
AcDbSpline
210
0.0
220
0.0
230
1.0
 70
    24
 71
     3
 72
     8
 73
     4
 74
     2
 42
0.0000000001
 43
0.0000000001
 44
0.0000000001
 40
0.0
 40
0.0
 40
0.0
 40
0.0
 40
0.0602791861490264
 40
0.0602791861490264
 40
0.0602791861490264
 40
0.0602791861490264
 10
162.453916239748
 20
-48.25153558189752
 30
0.0
 10
162.4740062415258
 20
-48.25188625425308
 30
0.0
 10
162.4940962433036
 20
-48.25223692660863
 30
0.0
 10
162.5141862450814
 20
-48.25258759896419
 30
0.0
 11
162.453916239748
 21
-48.25153558189752
 31
0.0
 11
162.5141862450814
 21
-48.25258759896419
 31
0.0
  0
SPLINE
  5
C8
330
2
100
AcDbEntity
  8
0
  6
CONTINUOUS
100
AcDbSpline
210
0.0
220
0.0
230
1.0
 70
    24
 71
     3
 72
     8
 73
     4
 74
     2
 42
0.0000000001
 43
0.0000000001
 44
0.0000000001
 40
0.0
 40
0.0
 40
0.0
 40
0.0
 40
0.052128147964728
 40
0.052128147964728
 40
0.052128147964728
 40
0.052128147964728
 10
163.4710762866814
 20
-48.32232088109751
 30
0.0
 10
163.453702598148
 20
-48.32203446047529
 30
0.0
 10
163.4363289096147
 20
-48.32174803985307
 30
0.0
 10
163.4189552210814
 20
-48.32146161923085
 30
0.0
 11
163.4710762866814
 21
-48.32232088109751
 31
0.0
 11
163.4189552210814
 21
-48.32146161923085
 31
0.0
  0
SPLINE
  5
C9
330
2
100
AcDbEntity
  8
0
  6
CONTINUOUS
100
AcDbSpline
210
0.0
220
0.0
230
1.0
 70
    24
 71
     3
 72
     8
 73
     4
 74
     2
 42
0.0000000001
 43
0.0000000001
 44
0.0000000001
 40
0.0
 40
0.0
 40
0.0
 40
0.0
 40
0.5429567957255274
 40
0.5429567957255274
 40
0.5429567957255274
 40
0.5429567957255274
 10
163.4189552210814
 20
-48.32146161923085
 30
0.0
 10
163.2379942223258
 20
-48.31847769211974
 30
0.0
 10
163.0570332235703
 20
-48.31549376500864
 30
0.0
 10
162.8760722248147
 20
-48.31250983789752
 30
0.0
 11
163.4189552210814
 21
-48.32146161923085
 31
0.0
 11
162.8760722248147
 21
-48.31250983789752
 31
0.0
  0
SPLINE
  5
CA
330
2
100
AcDbEntity
  8
0
  6
CONTINUOUS
100
AcDbSpline
210
0.0
220
0.0
230
1.0
 70
    24
 71
     3
 72
     8
 73
     4
 74
     2
 42
0.0000000001
 43
0.0000000001
 44
0.0000000001
 40
0.0
 40
0.0
 40
0.0
 40
0.0
 40
0.5443349475237147
 40
0.5443349475237147
 40
0.5443349475237147
 40
0.5443349475237147
 10
163.4211982770814
 20
-48.26841955309753
 30
0.0
 10
163.2397809295258
 20
-48.26525290136419
 30
0.0
 10
163.0583635819703
 20
-48.26208624963086
 30
0.0
 10
162.8769462344147
 20
-48.25891959789752
 30
0.0
 11
163.4211982770814
 21
-48.26841955309753
 31
0.0
 11
162.8769462344147
 21
-48.25891959789752
 31
0.0
  0
SPLINE
  5
CB
330
2
100
AcDbEntity
  8
0
  6
CONTINUOUS
100
AcDbSpline
210
0.0
220
0.0
230
1.0
 70
     8
 71
     3
 72
    10
 73
     6
 74
     4
 42
0.0000000001
 43
0.0000000001
 44
0.0000000001
 40
0.0
 40
0.0
 40
0.0
 40
0.0
 40
0.2542514106589242
 40
0.5802091355987194
 40
0.9176004483266192
 40
0.9176004483266192
 40
0.9176004483266192
 40
0.9176004483266192
 10
162.5141862450814
 20
-48.25258759896419
 30
0.0
 10
162.5989238073921
 20
-48.25406669871629
 30
0.0
 10
162.7922973963672
 20
-48.25744204749568
 30
0.0
 10
163.0981176274802
 20
-48.26278015938362
 30
0.0
 10
163.3192002962813
 20
-48.26663917159129
 30
0.0
 10
163.4316469384147
 20
-48.26860193496418
 30
0.0
 11
162.5141862450814
 21
-48.25258759896419
 31
0.0
 11
162.7683989320147
 21
-48.25702489816418
 31
0.0
 11
163.0943070120147
 21
-48.26271364483085
 31
0.0
 11
163.4316469384147
 21
-48.26860193496418
 31
0.0
  0
LINE
  5
CC
330
2
100
AcDbEntity
  8
0
  6
CONTINUOUS
100
AcDbLine
 10
162.431596303748
 20
-48.30516870403085
 30
0.0
 11
161.8362042482814
 21
-48.29384315416419
 31
0.0
  0
SPLINE
  5
CD
330
2
100
AcDbEntity
  8
0
  6
CONTINUOUS
100
AcDbSpline
210
0.0
220
0.0
230
1.0
 70
     8
 71
     3
 72
    10
 73
     6
 74
     4
 42
0.0000000001
 43
0.0000000001
 44
0.0000000001
 40
0.0
 40
0.0
 40
0.0
 40
0.0
 40
0.2059939904220281
 40
0.4031896818782807
 40
0.5915933516155229
 40
0.5915933516155229
 40
0.5915933516155229
 40
0.5915933516155229
 10
162.4371688530814
 20
-48.25124325549752
 30
0.0
 10
162.3685146475715
 20
-48.25004489169528
 30
0.0
 10
162.2341385561989
 20
-48.24769934792864
 30
0.0
 10
162.0369708064938
 20
-48.24425777267976
 30
0.0
 10
161.9084572623243
 20
-48.2420145597603
 30
0.0
 10
161.8456656040147
 20
-48.24091852696419
 30
0.0
 11
162.4371688530814
 21
-48.25124325549752
 31
0.0
 11
162.231206236548
 21
-48.24764816429752
 31
0.0
 11
162.034040578948
 21
-48.24420662509751
 31
0.0
 11
161.8456656040147
 21
-48.24091852696419
 31
0.0
  0
SPLINE
  5
CE
330
2
100
AcDbEntity
  8
0
  6
CONTINUOUS
100
AcDbSpline
210
0.0
220
0.0
230
1.0
 70
    24
 71
     3
 72
     8
 73
     4
 74
     2
 42
0.0000000001
 43
0.0000000001
 44
0.0000000001
 40
0.0
 40
0.0
 40
0.0
 40
0.0
 40
0.6503634460224422
 40
0.6503634460224422
 40
0.6503634460224422
 40
0.6503634460224422
 10
161.8036518472147
 20
-48.24018517549752
 30
0.0
 10
162.0204066447258
 20
-48.24396864429751
 30
0.0
 10
162.2371614422369
 20
-48.24775211309751
 30
0.0
 10
162.453916239748
 20
-48.25153558189752
 30
0.0
 11
161.8036518472147
 21
-48.24018517549752
 31
0.0
 11
162.453916239748
 21
-48.25153558189752
 31
0.0
  0
SPLINE
  5
CF
330
2
100
AcDbEntity
  8
0
  6
CONTINUOUS
100
AcDbSpline
210
0.0
220
0.0
230
1.0
 70
    24
 71
     3
 72
     8
 73
     4
 74
     2
 42
0.0000000001
 43
0.0000000001
 44
0.0000000001
 40
0.0
 40
0.0
 40
0.0
 40
0.0
 40
0.0095812047499576
 40
0.0095812047499576
 40
0.0095812047499576
 40
0.0095812047499576
 10
164.373278348548
 20
-48.22452553389751
 30
0.0
 10
164.3764712783258
 20
-48.22459724269752
 30
0.0
 10
164.3796642081036
 20
-48.22466895149752
 30
0.0
 10
164.3828571378814
 20
-48.22474066029752
 30
0.0
 11
164.373278348548
 21
-48.22452553389751
 31
0.0
 11
164.3828571378814
 21
-48.22474066029752
 31
0.0
  0
SPLINE
  5
D0
330
2
100
AcDbEntity
  8
0
  6
CONTINUOUS
100
AcDbSpline
210
0.0
220
0.0
230
1.0
 70
     8
 71
     3
 72
    10
 73
     6
 74
     4
 42
0.0000000001
 43
0.0000000001
 44
0.0000000001
 40
0.0
 40
0.0
 40
0.0
 40
0.0
 40
0.3102933336370873
 40
0.6004301362178712
 40
0.8615257579721646
 40
0.8615257579721646
 40
0.8615257579721646
 40
0.8615257579721646
 10
163.5119718920147
 20
-48.20508802776418
 30
0.0
 10
163.6153764696128
 20
-48.20743069799612
 30
0.0
 10
163.8154685047365
 20
-48.21196385953713
 30
0.0
 10
164.1025706631043
 20
-48.21844280503087
 30
0.0
 10
164.2862684369922
 20
-48.2225704445921
 30
0.0
 10
164.373278348548
 20
-48.22452553389751
 30
0.0
 11
163.5119718920147
 21
-48.20508802776418
 31
0.0
 11
163.8221857320147
 21
-48.21211130136418
 31
0.0
 11
164.112248703748
 21
-48.21865627203085
 31
0.0
 11
164.373278348548
 21
-48.22452553389751
 31
0.0
  0
SPLINE
  5
D1
330
2
100
AcDbEntity
  8
0
  6
CONTINUOUS
100
AcDbSpline
210
0.0
220
0.0
230
1.0
 70
     8
 71
     3
 72
     9
 73
     5
 74
     3
 42
0.0000000001
 43
0.0000000001
 44
0.0000000001
 40
0.0
 40
0.0
 40
0.0
 40
0.0
 40
0.3226443569964749
 40
0.8606229206330727
 40
0.8606229206330727
 40
0.8606229206330727
 40
0.8606229206330727
 10
164.371119305348
 20
-48.33715407469751
 30
0.0
 10
164.2635857816429
 20
-48.33538230163004
 30
0.0
 10
163.9767504063133
 20
-48.33065626666629
 30
0.0
 10
163.6899150645336
 20
-48.32592819586809
 30
0.0
 10
163.5106132338814
 20
-48.32297266136418
 30
0.0
 11
164.371119305348
 21
-48.33715407469751
 31
0.0
 11
164.048518738948
 21
-48.33183846936418
 31
0.0
 11
163.5106132338814
 21
-48.32297266136418
 31
0.0
  0
SPLINE
  5
D2
330
2
100
AcDbEntity
  8
0
  6
CONTINUOUS
100
AcDbSpline
210
0.0
220
0.0
230
1.0
 70
     8
 71
     3
 72
    10
 73
     6
 74
     4
 42
0.0000000001
 43
0.0000000001
 44
0.0000000001
 40
0.0
 40
0.0
 40
0.0
 40
0.0
 40
0.3063682229489142
 40
0.5928882176090678
 40
0.8606132622226894
 40
0.8606132622226894
 40
0.8606132622226894
 40
0.8606132622226894
 10
163.5114863816147
 20
-48.26999553816419
 30
0.0
 10
163.6135935688177
 20
-48.27177782528645
 30
0.0
 10
163.8111928747871
 20
-48.2752269331117
 30
0.0
 10
164.0980202703137
 20
-48.28023352534995
 30
0.0
 10
164.2827404786794
 20
-48.2834578280543
 30
0.0
 10
164.3719685682814
 20
-48.28501530989752
 30
0.0
 11
163.5114863816147
 21
-48.26999553816419
 31
0.0
 11
163.8178079432147
 21
-48.27534240003085
 31
0.0
 11
164.1042842994814
 21
-48.28034286403084
 31
0.0
 11
164.3719685682814
 21
-48.28501530989752
 31
0.0
  0
LINE
  5
D3
330
2
100
AcDbEntity
  8
0
  6
CONTINUOUS
100
AcDbLine
 10
163.4329122376147
 20
-48.20404315416419
 30
0.0
 11
163.5119499538814
 21
-48.20542276163085
 31
0.0
  0
SPLINE
  5
D4
330
2
100
AcDbEntity
  8
0
  6
CONTINUOUS
100
AcDbSpline
210
0.0
220
0.0
230
1.0
 70
    24
 71
     3
 72
     8
 73
     4
 74
     2
 42
0.0000000001
 43
0.0000000001
 44
0.0000000001
 40
0.0
 40
0.0
 40
0.0
 40
0.0
 40
0.0395423192467661
 40
0.0395423192467661
 40
0.0395423192467661
 40
0.0395423192467661
 10
163.5106132338814
 20
-48.32297266136418
 30
0.0
 10
163.4974342514814
 20
-48.32275540127529
 30
0.0
 10
163.4842552690814
 20
-48.3225381411864
 30
0.0
 10
163.4710762866814
 20
-48.32232088109751
 30
0.0
 11
163.5106132338814
 21
-48.32297266136418
 31
0.0
 11
163.4710762866814
 21
-48.32232088109751
 31
0.0
  0
SPLINE
  5
D5
330
2
100
AcDbEntity
  8
0
  6
CONTINUOUS
100
AcDbSpline
210
0.0
220
0.0
230
1.0
 70
    24
 71
     3
 72
     8
 73
     4
 74
     2
 42
0.0000000001
 43
0.0000000001
 44
0.0000000001
 40
0.0
 40
0.0
 40
0.0
 40
0.0
 40
0.0903018963437654
 40
0.0903018963437654
 40
0.0903018963437654
 40
0.0903018963437654
 10
163.5114864200147
 20
-48.26999553816419
 30
0.0
 10
163.4813903723703
 20
-48.26947020980863
 30
0.0
 10
163.4512943247258
 20
-48.26894488145308
 30
0.0
 10
163.4211982770814
 20
-48.26841955309753
 30
0.0
 11
163.5114864200147
 21
-48.26999553816419
 31
0.0
 11
163.4211982770814
 21
-48.26841955309753
 31
0.0
  0
SPLINE
  5
D6
330
2
100
AcDbEntity
  8
0
  6
CONTINUOUS
100
AcDbSpline
210
0.0
220
0.0
230
1.0
 70
    24
 71
     3
 72
     8
 73
     4
 74
     2
 42
0.0000000001
 43
0.0000000001
 44
0.0000000001
 40
0.0
 40
0.0
 40
0.0
 40
0.0
 40
0.0619631567498121
 40
0.0619631567498121
 40
0.0619631567498121
 40
0.0619631567498121
 10
161.667193471748
 20
-48.17322241816419
 30
0.0
 10
161.6878447115703
 20
-48.1735828867864
 30
0.0
 10
161.7084959513925
 20
-48.17394335540863
 30
0.0
 10
161.7291471912147
 20
-48.17430382403085
 30
0.0
 11
161.667193471748
 21
-48.17322241816419
 31
0.0
 11
161.7291471912147
 21
-48.17430382403085
 31
0.0
  0
SPLINE
  5
D7
330
2
100
AcDbEntity
  8
0
  6
CONTINUOUS
100
AcDbSpline
210
0.0
220
0.0
230
1.0
 70
    24
 71
     3
 72
     8
 73
     4
 74
     2
 42
0.0000000001
 43
0.0000000001
 44
0.0000000001
 40
0.0
 40
0.0
 40
0.0
 40
0.0
 40
0.009719424855444
 40
0.009719424855444
 40
0.009719424855444
 40
0.009719424855444
 10
161.6660665533481
 20
-48.23778361389752
 30
0.0
 10
161.6628272385036
 20
-48.23772707131974
 30
0.0
 10
161.6595879236592
 20
-48.23767052874195
 30
0.0
 10
161.6563486088147
 20
-48.23761398616419
 30
0.0
 11
161.6660665533481
 21
-48.23778361389752
 31
0.0
 11
161.6563486088147
 21
-48.23761398616419
 31
0.0
  0
SPLINE
  5
D8
330
2
100
AcDbEntity
  8
0
  6
CONTINUOUS
100
AcDbSpline
210
0.0
220
0.0
230
1.0
 70
     8
 71
     3
 72
    11
 73
     7
 74
     5
 42
0.0000000001
 43
0.0000000001
 44
0.0000000001
 40
0.0
 40
0.0
 40
0.0
 40
0.0
 40
0.1538969036164235
 40
0.2827486325538362
 40
0.3921797940362098
 40
0.4852866204273683
 40
0.4852866204273683
 40
0.4852866204273683
 40
0.4852866204273683
 10
167.304351596548
 20
-48.28876146136419
 30
0.0
 10
167.3556389574976
 20
-48.28985265992814
 30
0.0
 10
167.449867176747
 20
-48.29185747545433
 30
0.0
 10
167.5805644478614
 20
-48.29462637159354
 30
0.0
 10
167.6910030784912
 20
-48.29695790958385
 30
0.0
 10
167.7585008669934
 20
-48.29837500811127
 30
0.0
 10
167.789529638148
 20
-48.29902644909751
 30
0.0
 11
167.304351596548
 21
-48.28876146136419
 31
0.0
 11
167.4582137330814
 21
-48.29203252909752
 31
0.0
 11
167.5870365544147
 21
-48.29476176963085
 31
0.0
 11
167.696443359748
 21
-48.29707045976419
 31
0.0
 11
167.789529638148
 21
-48.29902644909751
 31
0.0
  0
SPLINE
  5
D9
330
2
100
AcDbEntity
  8
0
  6
CONTINUOUS
100
AcDbSpline
210
0.0
220
0.0
230
1.0
 70
    24
 71
     3
 72
     8
 73
     4
 74
     2
 42
0.0000000001
 43
0.0000000001
 44
0.0000000001
 40
0.0
 40
0.0
 40
0.0
 40
0.0
 40
0.1621677342692059
 40
0.1621677342692059
 40
0.1621677342692059
 40
0.1621677342692059
 10
167.3246037864147
 20
-48.38037350296418
 30
0.0
 10
167.2705479058814
 20
-48.38043129176418
 30
0.0
 10
167.216492025348
 20
-48.38048908056418
 30
0.0
 10
167.1624361448147
 20
-48.38054686936419
 30
0.0
 11
167.3246037864147
 21
-48.38037350296418
 31
0.0
 11
167.1624361448147
 21
-48.38054686936419
 31
0.0
  0
SPLINE
  5
DA
330
2
100
AcDbEntity
  8
0
  6
CONTINUOUS
100
AcDbSpline
210
0.0
220
0.0
230
1.0
 70
    24
 71
     3
 72
     8
 73
     4
 74
     2
 42
0.0000000001
 43
0.0000000001
 44
0.0000000001
 40
0.0
 40
0.0
 40
0.0
 40
0.0
 40
0.0471053330399659
 40
0.0471053330399659
 40
0.0471053330399659
 40
0.0471053330399659
 10
167.0794655848147
 20
-48.38073464323085
 30
0.0
 10
167.0637638713925
 20
-48.3807795644753
 30
0.0
 10
167.0480621579702
 20
-48.38082448571974
 30
0.0
 10
167.0323604445481
 20
-48.38086940696419
 30
0.0
 11
167.0794655848147
 21
-48.38073464323085
 31
0.0
 11
167.0323604445481
 21
-48.38086940696419
 31
0.0
  0
SPLINE
  5
DB
330
2
100
AcDbEntity
  8
0
  6
CONTINUOUS
100
AcDbSpline
210
0.0
220
0.0
230
1.0
 70
    24
 71
     3
 72
     8
 73
     4
 74
     2
 42
0.0000000001
 43
0.0000000001
 44
0.0000000001
 40
0.0
 40
0.0
 40
0.0
 40
0.0
 40
0.0432944949225493
 40
0.0432944949225493
 40
0.0432944949225493
 40
0.0432944949225493
 10
167.1227599506814
 20
-48.38062893229752
 30
0.0
 10
167.1083284953925
 20
-48.38066416927529
 30
0.0
 10
167.0938970401036
 20
-48.38069940625307
 30
0.0
 10
167.0794655848147
 20
-48.38073464323085
 30
0.0
 11
167.1227599506814
 21
-48.38062893229752
 31
0.0
 11
167.0794655848147
 21
-48.38073464323085
 31
0.0
  0
SPLINE
  5
DC
330
2
100
AcDbEntity
  8
0
  6
CONTINUOUS
100
AcDbSpline
210
0.0
220
0.0
230
1.0
 70
    24
 71
     3
 72
     8
 73
     4
 74
     2
 42
0.0000000001
 43
0.0000000001
 44
0.0000000001
 40
0.0
 40
0.0
 40
0.0
 40
0.0
 40
0.0396763003127454
 40
0.0396763003127454
 40
0.0396763003127454
 40
0.0396763003127454
 10
167.162436166148
 20
-48.38054687896419
 30
0.0
 10
167.1492107609925
 20
-48.3805742300753
 30
0.0
 10
167.1359853558369
 20
-48.38060158118641
 30
0.0
 10
167.1227599506814
 20
-48.38062893229752
 30
0.0
 11
167.162436166148
 21
-48.38054687896419
 31
0.0
 11
167.1227599506814
 21
-48.38062893229752
 31
0.0
  0
SPLINE
  5
DD
330
2
100
AcDbEntity
  8
0
  6
CONTINUOUS
100
AcDbSpline
210
0.0
220
0.0
230
1.0
 70
     8
 71
     3
 72
    11
 73
     7
 74
     5
 42
0.0000000001
 43
0.0000000001
 44
0.0000000001
 40
0.0
 40
0.0
 40
0.0
 40
0.0
 40
0.1519683476481374
 40
0.2792580203362298
 40
0.38739873496734
 40
0.4794080871026618
 40
0.4794080871026618
 40
0.4794080871026618
 40
0.4794080871026618
 10
167.258799423748
 20
-48.33540513069752
 30
0.0
 10
167.3094478244569
 20
-48.33628920193918
 30
0.0
 10
167.4025196537822
 20
-48.33791377698133
 30
0.0
 10
167.5316328978967
 20
-48.34016745550789
 30
0.0
 10
167.6407628541405
 20
-48.34207232721825
 30
0.0
 10
167.7074693817913
 20
-48.34323669378729
 30
0.0
 10
167.7381344946814
 20
-48.34377195523085
 30
0.0
 11
167.258799423748
 21
-48.33540513069752
 31
0.0
 11
167.4107446258814
 21
-48.33805734403085
 31
0.0
 11
167.538014911748
 21
-48.34027885443085
 31
0.0
 11
167.6461391560147
 21
-48.34216617069752
 31
0.0
 11
167.7381344946814
 21
-48.34377195523085
 31
0.0
  0
SPLINE
  5
DE
330
2
100
AcDbEntity
  8
0
  6
CONTINUOUS
100
AcDbSpline
210
0.0
220
0.0
230
1.0
 70
    24
 71
     3
 72
     8
 73
     4
 74
     2
 42
0.0000000001
 43
0.0000000001
 44
0.0000000001
 40
0.0
 40
0.0
 40
0.0
 40
0.0
 40
0.1834713611822552
 40
0.1834713611822552
 40
0.1834713611822552
 40
0.1834713611822552
 10
167.075356006148
 20
-48.33220311363085
 30
0.0
 10
167.1365038120147
 20
-48.33327045265307
 30
0.0
 10
167.1976516178814
 20
-48.33433779167529
 30
0.0
 10
167.258799423748
 20
-48.33540513069752
 30
0.0
 11
167.075356006148
 21
-48.33220311363085
 31
0.0
 11
167.258799423748
 21
-48.33540513069752
 31
0.0
  0
SPLINE
  5
DF
330
2
100
AcDbEntity
  8
0
  6
CONTINUOUS
100
AcDbSpline
210
0.0
220
0.0
230
1.0
 70
    24
 71
     3
 72
     8
 73
     4
 74
     2
 42
0.0000000001
 43
0.0000000001
 44
0.0000000001
 40
0.0
 40
0.0
 40
0.0
 40
0.0
 40
0.0374917624551277
 40
0.0374917624551277
 40
0.0374917624551277
 40
0.0374917624551277
 10
167.0378699538814
 20
-48.33154879149752
 30
0.0
 10
167.0503653046369
 20
-48.3317668988753
 30
0.0
 10
167.0628606553925
 20
-48.33198500625307
 30
0.0
 10
167.075356006148
 20
-48.33220311363085
 30
0.0
 11
167.0378699538814
 21
-48.33154879149752
 31
0.0
 11
167.075356006148
 21
-48.33220311363085
 31
0.0
  0
SPLINE
  5
E0
330
2
100
AcDbEntity
  8
0
  6
CONTINUOUS
100
AcDbSpline
210
0.0
220
0.0
230
1.0
 70
    24
 71
     3
 72
     8
 73
     4
 74
     2
 42
0.0000000001
 43
0.0000000001
 44
0.0000000001
 40
0.0
 40
0.0
 40
0.0
 40
0.0
 40
0.1857865479110202
 40
0.1857865479110202
 40
0.1857865479110202
 40
0.1857865479110202
 10
167.1186072722814
 20
-48.28480073069751
 30
0.0
 10
167.1805220470369
 20
-48.28612097425308
 30
0.0
 10
167.2424368217925
 20
-48.28744121780863
 30
0.0
 10
167.304351596548
 20
-48.28876146136419
 30
0.0
 11
167.1186072722814
 21
-48.28480073069751
 31
0.0
 11
167.304351596548
 21
-48.28876146136419
 31
0.0
  0
SPLINE
  5
E1
330
2
100
AcDbEntity
  8
0
  6
CONTINUOUS
100
AcDbSpline
210
0.0
220
0.0
230
1.0
 70
    24
 71
     3
 72
     8
 73
     4
 74
     2
 42
0.0000000001
 43
0.0000000001
 44
0.0000000001
 40
0.0
 40
0.0
 40
0.0
 40
0.0
 40
0.2260766361112089
 40
0.2260766361112089
 40
0.2260766361112089
 40
0.2260766361112089
 10
166.8925825618814
 20
-48.27995555949751
 30
0.0
 10
166.9679241320148
 20
-48.28157061656418
 30
0.0
 10
167.0432657021481
 20
-48.28318567363084
 30
0.0
 10
167.1186072722814
 20
-48.28480073069751
 30
0.0
 11
166.8925825618814
 21
-48.27995555949751
 31
0.0
 11
167.1186072722814
 21
-48.28480073069751
 31
0.0
  0
SPLINE
  5
E2
330
2
100
AcDbEntity
  8
0
  6
CONTINUOUS
100
AcDbSpline
210
0.0
220
0.0
230
1.0
 70
     8
 71
     3
 72
    12
 73
     8
 74
     6
 42
0.0000000001
 43
0.0000000001
 44
0.0000000001
 40
0.0
 40
0.0
 40
0.0
 40
0.0
 40
0.1238091376238226
 40
0.2417111261065447
 40
0.3529355178554012
 40
0.4619498362868145
 40
0.5754566875117578
 40
0.5754566875117578
 40
0.5754566875117578
 40
0.5754566875117578
 10
168.5339787794814
 20
-48.38753291843086
 30
0.0
 10
168.4927126734626
 20
-48.38698598775538
 30
0.0
 10
168.4121493390654
 20
-48.38591822141754
 30
0.0
 10
168.294510494835
 20
-48.3846855459054
 30
0.0
 10
168.1818013543488
 20
-48.38368481955493
 30
0.0
 10
168.0705560033285
 20
-48.38283936880502
 30
0.0
 10
167.9963836872931
 20
-48.38238135725692
 30
0.0
 10
167.9585487880147
 20
-48.38214772803085
 30
0.0
 11
168.5339787794814
 21
-48.38753291843086
 31
0.0
 11
168.4101797512147
 21
-48.38595078083085
 31
0.0
 11
168.2922844552147
 21
-48.38469456856419
 31
0.0
 11
168.1810644904147
 21
-48.38370222296418
 31
0.0
 11
168.072053302148
 21
-48.38287611416419
 31
0.0
 11
167.9585487880147
 21
-48.38214772803085
 31
0.0
  0
SPLINE
  5
E3
330
2
100
AcDbEntity
  8
0
  6
CONTINUOUS
100
AcDbSpline
210
0.0
220
0.0
230
1.0
 70
     8
 71
     3
 72
    10
 73
     6
 74
     4
 42
0.0000000001
 43
0.0000000001
 44
0.0000000001
 40
0.0
 40
0.0
 40
0.0
 40
0.0
 40
0.2311603654689794
 40
0.4081582185092029
 40
0.5422166445933407
 40
0.5422166445933407
 40
0.5422166445933407
 40
0.5422166445933407
 10
167.9359202930814
 20
-48.30208140483085
 30
0.0
 10
168.0129571254834
 20
-48.30368184948962
 30
0.0
 10
168.148980514307
 20
-48.30650774327736
 30
0.0
 10
168.3296816414092
 20
-48.31020212046212
 30
0.0
 10
168.4333463644167
 20
-48.31227408412287
 30
0.0
 10
168.4780235837481
 20
-48.31316705496419
 30
0.0
 11
167.9359202930814
 21
-48.30208140483085
 31
0.0
 11
168.1670310888147
 21
-48.30686833069751
 31
0.0
 11
168.3439921032147
 21
-48.31047933656418
 31
0.0
 11
168.4780235837481
 21
-48.31316705496419
 31
0.0
  0
SPLINE
  5
E4
330
2
100
AcDbEntity
  8
0
  6
CONTINUOUS
100
AcDbSpline
210
0.0
220
0.0
230
1.0
 70
     8
 71
     3
 72
    11
 73
     7
 74
     5
 42
0.0000000001
 43
0.0000000001
 44
0.0000000001
 40
0.0
 40
0.0
 40
0.0
 40
0.0
 40
0.1758775123310116
 40
0.3505614327222966
 40
0.4828397222878727
 40
0.5840419358700208
 40
0.5840419358700208
 40
0.5840419358700208
 40
0.5840419358700208
 10
167.935132761348
 20
-48.34721057283085
 30
0.0
 10
167.9937496697901
 20
-48.34823373492342
 30
0.0
 10
168.1105856832909
 20
-48.35027311542368
 30
0.0
 10
168.2715077444762
 20
-48.35308201861139
 30
0.0
 10
168.4075418304947
 20
-48.35545650365154
 30
0.0
 10
168.4853568114802
 20
-48.35681476881044
 30
0.0
 10
168.5190857448147
 20
-48.35740350936418
 30
0.0
 11
167.935132761348
 21
-48.34721057283085
 31
0.0
 11
168.1109834866814
 21
-48.35028005869752
 31
0.0
 11
168.2856408018814
 21
-48.35332871256419
 31
0.0
 11
168.4178989448147
 21
-48.35563728749752
 31
0.0
 11
168.5190857448147
 21
-48.35740350936418
 31
0.0
  0
SPLINE
  5
E5
330
2
100
AcDbEntity
  8
0
  6
CONTINUOUS
100
AcDbSpline
210
0.0
220
0.0
230
1.0
 70
     8
 71
     3
 72
    10
 73
     6
 74
     4
 42
0.0000000001
 43
0.0000000001
 44
0.0000000001
 40
0.0
 40
0.0
 40
0.0
 40
0.0
 40
0.0839131828318408
 40
0.1928690494200092
 40
0.3139869057144588
 40
0.3139869057144588
 40
0.3139869057144588
 40
0.3139869057144588
 10
168.8478860456147
 20
-48.39431623469752
 30
0.0
 10
168.8199306723315
 20
-48.39336845332141
 30
0.0
 10
168.7556770462698
 20
-48.39119003883515
 30
0.0
 10
168.6510284235527
 20
-48.38931355160298
 30
0.0
 10
168.5743464955957
 20
-48.38814701764462
 30
0.0
 10
168.5339787794814
 20
-48.38753291843086
 30
0.0
 11
168.8478860456147
 21
-48.39431623469752
 31
0.0
 11
168.7640146909481
 21
-48.39166706136419
 31
0.0
 11
168.655081730948
 21
-48.38943298669752
 31
0.0
 11
168.5339787794814
 21
-48.38753291843086
 31
0.0
  0
SPLINE
  5
E6
330
2
100
AcDbEntity
  8
0
  6
CONTINUOUS
100
AcDbSpline
210
0.0
220
0.0
230
1.0
 70
     8
 71
     3
 72
    12
 73
     8
 74
     6
 42
0.0000000001
 43
0.0000000001
 44
0.0000000001
 40
0.0
 40
0.0
 40
0.0
 40
0.0
 40
0.0444947769262903
 40
0.0886628816674623
 40
0.1317442476656807
 40
0.1725332586654326
 40
0.2089549873716603
 40
0.2089549873716603
 40
0.2089549873716603
 40
0.2089549873716603
 10
168.6425410450814
 20
-48.36021836696418
 30
0.0
 10
168.6573490377832
 20
-48.36106834713739
 30
0.0
 10
168.6868563057224
 20
-48.36276206709114
 30
0.0
 10
168.7305668815651
 20
-48.36724946280383
 30
0.0
 10
168.7727579048521
 20
-48.37362731355675
 30
0.0
 10
168.8121654283916
 20
-48.38157061248377
 30
0.0
 10
168.8364332528342
 20
-48.39023010357743
 30
0.0
 10
168.8478808328147
 20
-48.39431494509752
 30
0.0
 11
168.6425410450814
 21
-48.36021836696418
 31
0.0
 11
168.6869422610814
 21
-48.36310232109752
 31
0.0
 11
168.7308767944147
 21
-48.36763864749752
 31
0.0
 11
168.7734707954814
 21
-48.37410047149752
 31
0.0
 11
168.813309721348
 21
-48.38285280856418
 31
0.0
 11
168.8478808328147
 21
-48.39431494509752
 31
0.0
  0
SPLINE
  5
E7
330
2
100
AcDbEntity
  8
0
  6
CONTINUOUS
100
AcDbSpline
210
0.0
220
0.0
230
1.0
 70
    24
 71
     3
 72
     8
 73
     4
 74
     2
 42
0.0000000001
 43
0.0000000001
 44
0.0000000001
 40
0.0
 40
0.0
 40
0.0
 40
0.0
 40
0.0440029920555254
 40
0.0440029920555254
 40
0.0440029920555254
 40
0.0440029920555254
 10
168.5985612242814
 20
-48.35879054616419
 30
0.0
 10
168.613221164548
 20
-48.35926648643085
 30
0.0
 10
168.6278811048147
 20
-48.35974242669752
 30
0.0
 10
168.6425410450814
 20
-48.36021836696418
 30
0.0
 11
168.5985612242814
 21
-48.35879054616419
 31
0.0
 11
168.6425410450814
 21
-48.36021836696418
 31
0.0
  0
SPLINE
  5
E8
330
2
100
AcDbEntity
  8
0
  6
CONTINUOUS
100
AcDbSpline
210
0.0
220
0.0
230
1.0
 70
     8
 71
     3
 72
    13
 73
     9
 74
     7
 42
0.0000000001
 43
0.0000000001
 44
0.0000000001
 40
0.0
 40
0.0
 40
0.0
 40
0.0
 40
0.0346576887926051
 40
0.0692455899414594
 40
0.1036239363119693
 40
0.1380245683186741
 40
0.1729307908692478
 40
0.2091449684561301
 40
0.2091449684561301
 40
0.2091449684561301
 40
0.2091449684561301
 10
168.6610521384147
 20
-48.31673346776419
 30
0.0
 10
168.6726023452241
 20
-48.31724090853059
 30
0.0
 10
168.6956795010393
 20
-48.31825476826719
 30
0.0
 10
168.7298277687879
 20
-48.32398710094827
 30
0.0
 10
168.7630757847866
 20
-48.33340980488835
 30
0.0
 10
168.7946692970898
 20
-48.34762519879475
 30
0.0
 10
168.8244073633281
 20
-48.36710166317992
 30
0.0
 10
168.8399609955117
 20
-48.38513331281294
 30
0.0
 10
168.8478808328147
 20
-48.39431494509752
 30
0.0
 11
168.6610521384147
 21
-48.31673346776419
 31
0.0
 11
168.695638143748
 21
-48.31896138776418
 31
0.0
 11
168.7297599656147
 21
-48.32462037869753
 31
0.0
 11
168.762777449348
 21
-48.33419725016419
 31
0.0
 11
168.7941244850814
 21
-48.34836647149752
 31
0.0
 11
168.8229572562814
 21
-48.36804172696418
 31
0.0
 11
168.8478808328147
 21
-48.39431494509752
 31
0.0
  0
SPLINE
  5
E9
330
2
100
AcDbEntity
  8
0
  6
CONTINUOUS
100
AcDbSpline
210
0.0
220
0.0
230
1.0
 70
     8
 71
     3
 72
     9
 73
     5
 74
     3
 42
0.0000000001
 43
0.0000000001
 44
0.0000000001
 40
0.0
 40
0.0
 40
0.0
 40
0.0
 40
0.1025445239409007
 40
0.1830632630957674
 40
0.1830632630957674
 40
0.1830632630957674
 40
0.1830632630957674
 10
168.4780235837481
 20
-48.31316705496419
 30
0.0
 10
168.5121984116774
 20
-48.3138428444284
 30
0.0
 10
168.5732075740983
 20
-48.31504926891344
 30
0.0
 10
168.634217451925
 20
-48.3162189324045
 30
0.0
 10
168.6610521010814
 20
-48.31673339843085
 30
0.0
 11
168.4780235837481
 21
-48.31316705496419
 31
0.0
 11
168.5805482920147
 21
-48.31518288856418
 31
0.0
 11
168.6610521010814
 21
-48.31673339843085
 31
0.0
  0
SPLINE
  5
EA
330
2
100
AcDbEntity
  8
0
  6
CONTINUOUS
100
AcDbSpline
210
0.0
220
0.0
230
1.0
 70
    24
 71
     3
 72
     8
 73
     4
 74
     2
 42
0.0000000001
 43
0.0000000001
 44
0.0000000001
 40
0.0
 40
0.0
 40
0.0
 40
0.0
 40
0.0794876049977993
 40
0.0794876049977993
 40
0.0794876049977993
 40
0.0794876049977993
 10
168.5190857448147
 20
-48.35740350936418
 30
0.0
 10
168.5455775777036
 20
-48.35786592571974
 30
0.0
 10
168.5720694105925
 20
-48.35832834207529
 30
0.0
 10
168.5985612434814
 20
-48.35879075843084
 30
0.0
 11
168.5190857448147
 21
-48.35740350936418
 31
0.0
 11
168.5985612434814
 21
-48.35879075843084
 31
0.0
  0
SPLINE
  5
EB
330
2
100
AcDbEntity
  8
0
  6
CONTINUOUS
100
AcDbSpline
210
0.0
220
0.0
230
1.0
 70
     8
 71
     3
 72
    10
 73
     6
 74
     4
 42
0.0000000001
 43
0.0000000001
 44
0.0000000001
 40
0.0
 40
0.0
 40
0.0
 40
0.0
 40
0.1392434005083445
 40
0.2715216900739207
 40
0.308894129809568
 40
0.308894129809568
 40
0.308894129809568
 40
0.308894129809568
 10
168.1464186088147
 20
-48.35089858029752
 30
0.0
 10
168.1928260065051
 20
-48.35170862429807
 30
0.0
 10
168.283319451845
 20
-48.35328819299045
 30
0.0
 10
168.3862684797429
 20
-48.35508517579445
 30
0.0
 10
168.4428101099701
 20
-48.35607211346307
 30
0.0
 10
168.455265692548
 20
-48.35628952643085
 30
0.0
 11
168.1464186088147
 21
-48.35089858029752
 31
0.0
 11
168.2856408018814
 21
-48.35332871256419
 31
0.0
 11
168.4178989448147
 21
-48.35563728749752
 31
0.0
 11
168.455265692548
 21
-48.35628952643085
 31
0.0
  0
SPLINE
  5
EC
330
2
100
AcDbEntity
  8
0
  6
CONTINUOUS
100
AcDbSpline
210
0.0
220
0.0
230
1.0
 70
     8
 71
     3
 72
    10
 73
     6
 74
     4
 42
0.0000000001
 43
0.0000000001
 44
0.0000000001
 40
0.0
 40
0.0
 40
0.0
 40
0.0
 40
0.1366088857074865
 40
0.2648454709254419
 40
0.3913858838943366
 40
0.3913858838943366
 40
0.3913858838943366
 40
0.3913858838943366
 10
168.4552656914814
 20
-48.35628959789752
 30
0.0
 10
168.4097363312963
 20
-48.35549489987927
 30
0.0
 10
168.3214679527299
 20
-48.35395420821932
 30
0.0
 10
168.1910258635088
 20
-48.35167721340224
 30
0.0
 10
168.1061131326125
 20
-48.35019502318286
 30
0.0
 10
168.0639394194814
 20
-48.34945886189752
 30
0.0
 11
168.4552656914814
 21
-48.35628959789752
 31
0.0
 11
168.3186776114814
 21
-48.35390547203085
 31
0.0
 11
168.1904605586814
 21
-48.35166735683085
 31
0.0
 11
168.0639394194814
 21
-48.34945886189752
 31
0.0
  0
SPLINE
  5
ED
330
2
100
AcDbEntity
  8
0
  6
CONTINUOUS
100
AcDbSpline
210
0.0
220
0.0
230
1.0
 70
    24
 71
     3
 72
     8
 73
     4
 74
     2
 42
0.0000000001
 43
0.0000000001
 44
0.0000000001
 40
0.0
 40
0.0
 40
0.0
 40
0.0
 40
0.1283677022212195
 40
0.1283677022212195
 40
0.1283677022212195
 40
0.1283677022212195
 10
167.9585487880147
 20
-48.38214772803085
 30
0.0
 10
167.9157601391258
 20
-48.38192394491975
 30
0.0
 10
167.8729714902369
 20
-48.38170016180864
 30
0.0
 10
167.8301828413481
 20
-48.38147637869752
 30
0.0
 11
167.9585487880147
 21
-48.38214772803085
 31
0.0
 11
167.8301828413481
 21
-48.38147637869752
 31
0.0
  0
SPLINE
  5
EE
330
2
100
AcDbEntity
  8
0
  6
CONTINUOUS
100
AcDbSpline
210
0.0
220
0.0
230
1.0
 70
    24
 71
     3
 72
     8
 73
     4
 74
     2
 42
0.0000000001
 43
0.0000000001
 44
0.0000000001
 40
0.0
 40
0.0
 40
0.0
 40
0.0
 40
0.0522501254456993
 40
0.0522501254456993
 40
0.0522501254456993
 40
0.0522501254456993
 10
167.8836816584147
 20
-48.30099528643085
 30
0.0
 10
167.9010946027703
 20
-48.30135736820864
 30
0.0
 10
167.9185075471258
 20
-48.30171944998641
 30
0.0
 10
167.9359204914814
 20
-48.30208153176418
 30
0.0
 11
167.8836816584147
 21
-48.30099528643085
 31
0.0
 11
167.9359204914814
 21
-48.30208153176418
 31
0.0
  0
SPLINE
  5
EF
330
2
100
AcDbEntity
  8
0
  6
CONTINUOUS
100
AcDbSpline
210
0.0
220
0.0
230
1.0
 70
    24
 71
     3
 72
     8
 73
     4
 74
     2
 42
0.0000000001
 43
0.0000000001
 44
0.0000000001
 40
0.0
 40
0.0
 40
0.0
 40
0.0
 40
0.0524016418363441
 40
0.0524016418363441
 40
0.0524016418363441
 40
0.0524016418363441
 10
167.882739100548
 20
-48.34629603736419
 30
0.0
 10
167.900203654148
 20
-48.34660088251975
 30
0.0
 10
167.917668207748
 20
-48.3469057276753
 30
0.0
 10
167.935132761348
 20
-48.34721057283085
 30
0.0
 11
167.882739100548
 21
-48.34629603736419
 31
0.0
 11
167.935132761348
 21
-48.34721057283085
 31
0.0
  0
SPLINE
  5
F0
330
2
100
AcDbEntity
  8
0
  6
CONTINUOUS
100
AcDbSpline
210
0.0
220
0.0
230
1.0
 70
    24
 71
     3
 72
     8
 73
     4
 74
     2
 42
0.0000000001
 43
0.0000000001
 44
0.0000000001
 40
0.0
 40
0.0
 40
0.0
 40
0.0
 40
0.0664705280639327
 40
0.0664705280639327
 40
0.0664705280639327
 40
0.0664705280639327
 10
167.816278658948
 20
-48.34513596589752
 30
0.0
 10
167.8384321270369
 20
-48.34552265638641
 30
0.0
 10
167.8605855951258
 20
-48.3459093468753
 30
0.0
 10
167.8827390632147
 20
-48.34629603736419
 30
0.0
 11
167.816278658948
 21
-48.34513596589752
 31
0.0
 11
167.8827390632147
 21
-48.34629603736419
 31
0.0
  0
SPLINE
  5
F1
330
2
100
AcDbEntity
  8
0
  6
CONTINUOUS
100
AcDbSpline
210
0.0
220
0.0
230
1.0
 70
     8
 71
     3
 72
     9
 73
     5
 74
     3
 42
0.0000000001
 43
0.0000000001
 44
0.0000000001
 40
0.0
 40
0.0
 40
0.0
 40
0.0
 40
0.2297875506733912
 40
0.9186807047098447
 40
0.9186807047098447
 40
0.9186807047098447
 40
0.9186807047098447
 10
149.193531110148
 20
-41.10603820483085
 30
0.0
 10
149.2683999780889
 20
-41.08971550855385
 30
0.0
 10
149.5677224790649
 20
-41.02445807369902
 30
0.0
 10
149.8579023428811
 20
-40.92518678704168
 30
0.0
 10
150.0755001661481
 20
-40.85074600536418
 30
0.0
 11
149.193531110148
 21
-41.10603820483085
 31
0.0
 11
149.417565714948
 21
-41.05494207683086
 31
0.0
 11
150.0755001661481
 21
-40.85074600536418
 31
0.0
  0
SPLINE
  5
F2
330
2
100
AcDbEntity
  8
0
  6
CONTINUOUS
100
AcDbSpline
210
0.0
220
0.0
230
1.0
 70
     8
 71
     3
 72
     9
 73
     5
 74
     3
 42
0.0000000001
 43
0.0000000001
 44
0.0000000001
 40
0.0
 40
0.0
 40
0.0
 40
0.0
 40
0.846971153660478
 40
1.689031698048809
 40
1.689031698048809
 40
1.689031698048809
 40
1.689031698048809
 10
151.753075257348
 20
-40.66864969923085
 30
0.0
 10
151.4903984788575
 20
-40.77341451794014
 30
0.0
 10
150.9665678816826
 20
-40.98233674495527
 30
0.0
 10
150.4167402130026
 20
-41.10775250665063
 30
0.0
 10
150.1426256498814
 20
-41.17027807363085
 30
0.0
 11
151.753075257348
 21
-40.66864969923085
 31
0.0
 11
150.958507807748
 21
-40.96194597123085
 31
0.0
 11
150.1426256498814
 21
-41.17027807363085
 31
0.0
  0
SPLINE
  5
F3
330
2
100
AcDbEntity
  8
0
  6
CONTINUOUS
100
AcDbSpline
210
0.0
220
0.0
230
1.0
 70
     8
 71
     3
 72
     9
 73
     5
 74
     3
 42
0.0000000001
 43
0.0000000001
 44
0.0000000001
 40
0.0
 40
0.0
 40
0.0
 40
0.0
 40
0.1291473635093129
 40
0.5161884081673324
 40
0.5161884081673324
 40
0.5161884081673324
 40
0.5161884081673324
 10
152.2202323016147
 20
-40.44914528963086
 30
0.0
 10
152.181779405998
 20
-40.4685069820763
 30
0.0
 10
152.0280872326662
 20
-40.54589362731063
 30
0.0
 10
151.8707884702328
 20
-40.61574137394575
 30
0.0
 10
151.7528449512147
 20
-40.66811361709752
 30
0.0
 11
152.2202323016147
 21
-40.44914528963086
 31
0.0
 11
152.104647852548
 21
-40.50675845336418
 31
0.0
 11
151.7528449512147
 21
-40.66811361709752
 31
0.0
  0
SPLINE
  5
F4
330
2
100
AcDbEntity
  8
0
  6
CONTINUOUS
100
AcDbSpline
210
0.0
220
0.0
230
1.0
 70
     8
 71
     3
 72
    10
 73
     6
 74
     4
 42
0.0000000001
 43
0.0000000001
 44
0.0000000001
 40
0.0
 40
0.0
 40
0.0
 40
0.0
 40
0.4126724727386394
 40
0.8235364521433645
 40
1.147543001092294
 40
1.147543001092294
 40
1.147543001092294
 40
1.147543001092294
 10
150.0754473896147
 20
-40.85060515096418
 30
0.0
 10
150.204256234359
 20
-40.80233150253715
 30
0.0
 10
150.4613094327501
 20
-40.70599575982625
 30
0.0
 10
150.8195433569587
 20
-40.57188508049478
 30
0.0
 10
151.0489466187176
 20
-40.48598980637304
 30
0.0
 10
151.1500911826814
 20
-40.44811833069752
 30
0.0
 11
150.0754473896147
 21
-40.85060515096418
 31
0.0
 11
150.4618824786814
 21
-40.70580704429752
 31
0.0
 11
150.8466565682814
 21
-40.56173029549753
 31
0.0
 11
151.1500911826814
 21
-40.44811833069752
 31
0.0
  0
LINE
  5
F5
330
2
100
AcDbEntity
  8
0
  6
CONTINUOUS
100
AcDbLine
 10
177.8436152978814
 20
-40.44655489603085
 30
0.0
 11
177.8436152978814
 21
-38.07311939096418
 31
0.0
  0
LINE
  5
FD
330
2
100
AcDbEntity
  8
0
  6
CONTINUOUS
100
AcDbLine
 10
177.7542443417068
 20
-38.07311939096419
 30
0.0
 11
177.6492967592147
 21
-38.73566726083085
 31
0.0
  0
ARC
  5
FE
330
2
100
AcDbEntity
  8
0
  6
CONTINUOUS
100
AcDbCircle
 10
177.5966938063855
 20
-39.19655489603085
 30
0.0
 40
0.25
100
AcDbArc
 50
9.000869684999607
 51
89.99999999999982
  0
ARC
  5
FF
330
2
100
AcDbEntity
  8
0
  6
CONTINUOUS
100
AcDbCircle
 10
177.4023752669481
 20
-38.69655489603085
 30
0.0
 40
0.25
100
AcDbArc
 50
270.0000000000002
 51
350.9991303150004
  0
LINE
  5
106
330
2
100
AcDbEntity
  8
0
100
AcDbLine
 10
177.8436152978814
 20
-40.44655489603085
 30
0.0
 11
117.8436152978814
 21
-40.44655489603085
 31
0.0
  0
ENDSEC
  0
SECTION
  2
OBJECTS
  0
DICTIONARY
  5
24
330
0
100
AcDbDictionary
  3
ACAD_GROUP
350
22
  3
ACAD_LAYOUT
350
111
  3
ACAD_MLINESTYLE
350
23
  3
ACAD_PLOTSETTINGS
350
112
  3
ACAD_PLOTSTYLENAME
350
10F
  3
ACDBHEADERROUNDTRIPXREC
350
14C
  3
ACDBVARIABLEDICTIONARY
350
149
  0
DICTIONARY
  5
F
330
E
100
AcDbDictionary
280
     1
  3
ACAD_LAYERFILTERS
360
10
  0
DICTIONARY
  5
3
330
2
100
AcDbDictionary
280
     1
  3
ACAD_LAYOUTSELFREF
360
16D
  0
DICTIONARY
  5
A
330
9
100
AcDbDictionary
280
     1
  3
ACAD_LAYOUTSELFREF
360
16E
  0
DICTIONARY
  5
22
102
{ACAD_REACTORS
330
24
102
}
330
24
100
AcDbDictionary
  0
DICTIONARY
  5
111
102
{ACAD_REACTORS
330
24
102
}
330
24
100
AcDbDictionary
  0
DICTIONARY
  5
23
102
{ACAD_REACTORS
330
24
102
}
330
24
100
AcDbDictionary
  3
STANDARD
350
2A
  0
DICTIONARY
  5
112
102
{ACAD_REACTORS
330
24
102
}
330
24
100
AcDbDictionary
  0
ACDBDICTIONARYWDFLT
  5
10F
102
{ACAD_REACTORS
330
24
102
}
330
24
100
AcDbDictionary
281
     1
  3
Normal
350
110
100
AcDbDictionaryWithDefault
340
110
  0
DICTIONARY
  5
14C
102
{ACAD_REACTORS
330
24
102
}
330
24
100
AcDbDictionary
  3
CEPSNTYPE
350
156
  3
DIMSTYLEDATA
350
15A
  3
FINGERPRINTGUID
350
157
  3
HYPERLINKBASE
350
14F
  3
INSUNITS
350
155
  3
LAYOUTDICT
350
151
  3
LWETCUNION
350
154
  3
PLOTSETDICT
350
152
  3
PLOTSTYLNAMDICT
350
153
  3
PSVPSCALE
350
159
  3
PUCSBASE
350
15D
  3
PUCSORGBACK
350
163
  3
PUCSORGBOTTOM
350
15F
  3
PUCSORGFRONT
350
162
  3
PUCSORGLEFT
350
160
  3
PUCSORGRIGHT
350
161
  3
PUCSORGTOP
350
15E
  3
PUCSORTHOREF
350
15B
  3
PUCSORTHOVIEW
350
15C
  3
STYLESHEET
350
150
  3
TSTACKALIGN
350
14D
  3
TSTACKSIZE
350
14E
  3
UCSBASE
350
166
  3
UCSORGBACK
350
16C
  3
UCSORGBOTTOM
350
168
  3
UCSORGFRONT
350
16B
  3
UCSORGLEFT
350
169
  3
UCSORGRIGHT
350
16A
  3
UCSORGTOP
350
167
  3
UCSORTHOREF
350
164
  3
UCSORTHOVIEW
350
165
  3
VERSIONGUID
350
158
  0
DICTIONARY
  5
149
102
{ACAD_REACTORS
330
24
102
}
330
24
100
AcDbDictionary
  3
DIMASSOC
350
14A
  0
DICTIONARY
  5
10
102
{ACAD_REACTORS
330
F
102
}
330
F
100
AcDbDictionary
280
     1
  3
DIM-1_12
360
13
  3
DIM-1_16
360
14
  0
XRECORD
  5
16D
102
{ACAD_REACTORS
330
3
102
}
330
3
100
AcDbXrecord
340
2
  0
XRECORD
  5
16E
102
{ACAD_REACTORS
330
A
102
}
330
A
100
AcDbXrecord
340
9
  0
MLINESTYLE
  5
2A
102
{ACAD_REACTORS
330
23
102
}
330
23
100
AcDbMlineStyle
  2
STANDARD
 70
     0
  3

 62
     0
 51
90.00000000000019
 52
90.00000000000019
 71
     2
 49
0.5
 62
   256
  6
BYLAYER
 49
-0.5
 62
   256
  6
BYLAYER
  0
ACDBPLACEHOLDER
  5
110
102
{ACAD_REACTORS
330
10F
102
}
330
10F
100
AcDbPlaceHolder
280
     0
  0
XRECORD
  5
156
102
{ACAD_REACTORS
330
14C
102
}
330
14C
100
AcDbXrecord
 90
        0
  0
XRECORD
  5
15A
102
{ACAD_REACTORS
330
14C
102
}
330
14C
100
AcDbXrecord
1000
DSTYLE
1002
{
1070
    79
 70
     1
1070
   276
 70
     1
1070
   277
 70
     5
1070
   289
 70
     1
1002
}
  0
XRECORD
  5
157
102
{ACAD_REACTORS
330
14C
102
}
330
14C
100
AcDbXrecord
  1
{35496CAB-8428-4F51-9DF6-FAA3C8D4CB29}
  0
XRECORD
  5
14F
102
{ACAD_REACTORS
330
14C
102
}
330
14C
100
AcDbXrecord
  1

  0
XRECORD
  5
155
102
{ACAD_REACTORS
330
14C
102
}
330
14C
100
AcDbXrecord
 90
        0
  0
XRECORD
  5
151
102
{ACAD_REACTORS
330
14C
102
}
330
14C
100
AcDbXrecord
340
111
  0
XRECORD
  5
154
102
{ACAD_REACTORS
330
14C
102
}
330
14C
100
AcDbXrecord
 90
    14877
  0
XRECORD
  5
152
102
{ACAD_REACTORS
330
14C
102
}
330
14C
100
AcDbXrecord
340
112
  0
XRECORD
  5
153
102
{ACAD_REACTORS
330
14C
102
}
330
14C
100
AcDbXrecord
340
10F
  0
XRECORD
  5
159
102
{ACAD_REACTORS
330
14C
102
}
330
14C
100
AcDbXrecord
 40
0.0
  0
XRECORD
  5
15D
102
{ACAD_REACTORS
330
14C
102
}
330
14C
100
AcDbXrecord
340
0
  0
XRECORD
  5
163
102
{ACAD_REACTORS
330
14C
102
}
330
14C
100
AcDbXrecord
 10
0.0
 20
0.0
 30
0.0
  0
XRECORD
  5
15F
102
{ACAD_REACTORS
330
14C
102
}
330
14C
100
AcDbXrecord
 10
0.0
 20
0.0
 30
0.0
  0
XRECORD
  5
162
102
{ACAD_REACTORS
330
14C
102
}
330
14C
100
AcDbXrecord
 10
0.0
 20
0.0
 30
0.0
  0
XRECORD
  5
160
102
{ACAD_REACTORS
330
14C
102
}
330
14C
100
AcDbXrecord
 10
0.0
 20
0.0
 30
0.0
  0
XRECORD
  5
161
102
{ACAD_REACTORS
330
14C
102
}
330
14C
100
AcDbXrecord
 10
0.0
 20
0.0
 30
0.0
  0
XRECORD
  5
15E
102
{ACAD_REACTORS
330
14C
102
}
330
14C
100
AcDbXrecord
 10
0.0
 20
0.0
 30
0.0
  0
XRECORD
  5
15B
102
{ACAD_REACTORS
330
14C
102
}
330
14C
100
AcDbXrecord
340
0
  0
XRECORD
  5
15C
102
{ACAD_REACTORS
330
14C
102
}
330
14C
100
AcDbXrecord
 70
     0
  0
XRECORD
  5
150
102
{ACAD_REACTORS
330
14C
102
}
330
14C
100
AcDbXrecord
  1

  0
XRECORD
  5
14D
102
{ACAD_REACTORS
330
14C
102
}
330
14C
100
AcDbXrecord
 90
        1
  0
XRECORD
  5
14E
102
{ACAD_REACTORS
330
14C
102
}
330
14C
100
AcDbXrecord
 90
       70
  0
XRECORD
  5
166
102
{ACAD_REACTORS
330
14C
102
}
330
14C
100
AcDbXrecord
340
0
  0
XRECORD
  5
16C
102
{ACAD_REACTORS
330
14C
102
}
330
14C
100
AcDbXrecord
 10
0.0
 20
0.0
 30
0.0
  0
XRECORD
  5
168
102
{ACAD_REACTORS
330
14C
102
}
330
14C
100
AcDbXrecord
 10
0.0
 20
0.0
 30
0.0
  0
XRECORD
  5
16B
102
{ACAD_REACTORS
330
14C
102
}
330
14C
100
AcDbXrecord
 10
0.0
 20
0.0
 30
0.0
  0
XRECORD
  5
169
102
{ACAD_REACTORS
330
14C
102
}
330
14C
100
AcDbXrecord
 10
0.0
 20
0.0
 30
0.0
  0
XRECORD
  5
16A
102
{ACAD_REACTORS
330
14C
102
}
330
14C
100
AcDbXrecord
 10
0.0
 20
0.0
 30
0.0
  0
XRECORD
  5
167
102
{ACAD_REACTORS
330
14C
102
}
330
14C
100
AcDbXrecord
 10
0.0
 20
0.0
 30
0.0
  0
XRECORD
  5
164
102
{ACAD_REACTORS
330
14C
102
}
330
14C
100
AcDbXrecord
340
0
  0
XRECORD
  5
165
102
{ACAD_REACTORS
330
14C
102
}
330
14C
100
AcDbXrecord
 70
     0
  0
XRECORD
  5
158
102
{ACAD_REACTORS
330
14C
102
}
330
14C
100
AcDbXrecord
  1
{E5A8D8EA-F734-477C-84D9-206E5A40C30A}
  0
DICTIONARYVAR
  5
14A
102
{ACAD_REACTORS
330
149
102
}
330
149
100
DictionaryVariables
280
     0
  1
1
  0
XRECORD
  5
13
102
{ACAD_REACTORS
330
10
102
}
330
10
100
AcDbXrecord
  1
DIM-1_12
  1
DIM-1_12
  1
*
  1
*
 70
     0
  1
*
  1
*
  0
XRECORD
  5
14
102
{ACAD_REACTORS
330
10
102
}
330
10
100
AcDbXrecord
  1
dim-1_16
  1
*
  1
*
  1
*
 70
     0
  1
*
  1
*
  0
ENDSEC
  0
EOF
